ISO-10303-21;
HEADER;
FILE_DESCRIPTION (( 'STEP AP214' ),
    '1' );
FILE_NAME ('039-PR4040.STEP',
    '2026-01-06T13:45:34',
    ( '' ),
    ( '' ),
    'SwSTEP 2.0',
    'SolidWorks 2023',
    '' );
FILE_SCHEMA (( 'AUTOMOTIVE_DESIGN' ));
ENDSEC;

DATA;
#1 = DIRECTION ( 'NONE',  ( 0.000000000000000000, 0.000000000000000000, 1.000000000000000000 ) ) ;
#2 = CYLINDRICAL_SURFACE ( 'NONE', #79, 0.01030000000000000013 ) ;
#3 = PRESENTATION_STYLE_ASSIGNMENT (( #199 ) ) ;
#4 = DIRECTION ( 'NONE',  ( 0.000000000000000000, 1.000000000000000000, 0.000000000000000000 ) ) ;
#5 = AXIS2_PLACEMENT_3D ( 'NONE', #20, #142, #21 ) ;
#6 = CARTESIAN_POINT ( 'NONE',  ( -0.4499999999999999556, -1.336343798927033808E-18, 0.000000000000000000 ) ) ;
#7 = ORIENTED_EDGE ( 'NONE', *, *, #103, .T. ) ;
#8 =( NAMED_UNIT ( * ) SI_UNIT ( $, .STERADIAN. ) SOLID_ANGLE_UNIT ( ) );
#9 = PLANE ( 'NONE',  #116 ) ;
#10 = STYLED_ITEM ( 'NONE', ( #3 ), #150 ) ;
#11 = DIRECTION ( 'NONE',  ( 0.000000000000000000, 0.000000000000000000, -1.000000000000000000 ) ) ;
#12 = CARTESIAN_POINT ( 'NONE',  ( -0.4417122077728746210, -3.083878658809910342E-19, 0.000000000000000000 ) ) ;
#13 = DIRECTION ( 'NONE',  ( -1.000000000000000000, -0.000000000000000000, -0.000000000000000000 ) ) ;
#14 = DIRECTION ( 'NONE',  ( 0.000000000000000000, 0.000000000000000000, 1.000000000000000000 ) ) ;
#15 = PRESENTATION_LAYER_ASSIGNMENT (  '', '', ( #10 ) ) ;
#16 = ADVANCED_FACE ( 'NONE', ( #127 ), #46, .F. ) ;
#17 = LENGTH_MEASURE_WITH_UNIT ( LENGTH_MEASURE( 0.02539999999999999897 ), #105 );
#18 = CARTESIAN_POINT ( 'NONE',  ( 0.01284099999999999998, 0.000000000000000000, 0.01030000000000000013 ) ) ;
#19 = ORIENTED_EDGE ( 'NONE', *, *, #66, .F. ) ;
#20 = CARTESIAN_POINT ( 'NONE',  ( 0.000000000000000000, 0.000000000000000000, 0.000000000000000000 ) ) ;
#21 = DIRECTION ( 'NONE',  ( 1.000000000000000000, 0.000000000000000000, 0.000000000000000000 ) ) ;
#22 = ADVANCED_FACE ( 'NONE', ( #156, #176 ), #147, .T. ) ;
#23 = CARTESIAN_POINT ( 'NONE',  ( 0.000000000000000000, 0.000000000000000000, -0.007900000000000002506 ) ) ;
#24 = EDGE_LOOP ( 'NONE', ( #157 ) ) ;
#25 = DIRECTION ( 'NONE',  ( 1.000000000000000000, 0.000000000000000000, 0.000000000000000000 ) ) ;
#26 = CARTESIAN_POINT ( 'NONE',  ( 1.135000000000000009, 0.000000000000000000, 0.005999999999968067335 ) ) ;
#27 = EDGE_LOOP ( 'NONE', ( #210 ) ) ;
#28 = AXIS2_PLACEMENT_3D ( 'NONE', #81, #136, #118 ) ;
#29 = ADVANCED_FACE ( 'NONE', ( #72, #206 ), #9, .F. ) ;
#30 = CARTESIAN_POINT ( 'NONE',  ( 0.01284099999999999998, 0.000000000000000000, 0.000000000000000000 ) ) ;
#31 = FACE_OUTER_BOUND ( 'NONE', #109, .T. ) ;
#32 = DIRECTION ( 'NONE',  ( 0.000000000000000000, 0.000000000000000000, -1.000000000000000000 ) ) ;
#33 = DIRECTION ( 'NONE',  ( 1.000000000000000000, 1.240325414628049685E-16, -0.000000000000000000 ) ) ;
#34 = CIRCLE ( 'NONE', #110, 0.01030000000000000013 ) ;
#35 = EDGE_CURVE ( 'NONE', #120, #120, #59, .T. ) ;
#36 = SURFACE_SIDE_STYLE ('',( #152 ) ) ;
#37 = AXIS2_PLACEMENT_3D ( 'NONE', #60, #200, #57 ) ;
#38 = AXIS2_PLACEMENT_3D ( 'NONE', #65, #193, #69 ) ;
#39 =( NAMED_UNIT ( * ) SI_UNIT ( $, .STERADIAN. ) SOLID_ANGLE_UNIT ( ) );
#40 = AXIS2_PLACEMENT_3D ( 'NONE', #111, #178, #91 ) ;
#41 = ADVANCED_FACE ( 'NONE', ( #194, #145 ), #2, .T. ) ;
#42 = ORIENTED_EDGE ( 'NONE', *, *, #103, .F. ) ;
#43 = LENGTH_MEASURE_WITH_UNIT ( LENGTH_MEASURE( 0.02539999999999999897 ), #62 );
#44 = EDGE_LOOP ( 'NONE', ( #208 ) ) ;
#45 = APPLICATION_CONTEXT ( 'automotive_design' ) ;
#46 = PLANE ( 'NONE',  #40 ) ;
#47 =( NAMED_UNIT ( * ) PLANE_ANGLE_UNIT ( ) SI_UNIT ( $, .RADIAN. ) );
#48 = EDGE_LOOP ( 'NONE', ( #87 ) ) ;
#49 = ADVANCED_FACE ( 'NONE', ( #96, #133 ), #98, .T. ) ;
#50 = ORIENTED_EDGE ( 'NONE', *, *, #160, .T. ) ;
#51 = DIMENSIONAL_EXPONENTS ( 1.000000000000000000, 0.000000000000000000, 0.000000000000000000, 0.000000000000000000, 0.000000000000000000, 0.000000000000000000, 0.000000000000000000 ) ;
#52 = DIRECTION ( 'NONE',  ( -1.000000000000000000, -0.000000000000000000, -0.000000000000000000 ) ) ;
#53 = DIRECTION ( 'NONE',  ( 0.000000000000000000, 0.000000000000000000, 1.000000000000000000 ) ) ;
#54 = PRODUCT_DEFINITION_CONTEXT ( 'detailed design', #75, 'design' ) ;
#55 = CIRCLE ( 'NONE', #28, 0.01214999999999989179 ) ;
#56 = CARTESIAN_POINT ( 'NONE',  ( 0.000000000000000000, 0.000000000000000000, 0.000000000000000000 ) ) ;
#57 = DIRECTION ( 'NONE',  ( 0.000000000000000000, 0.000000000000000000, 1.000000000000000000 ) ) ;
#58 =( GEOMETRIC_REPRESENTATION_CONTEXT ( 3 ) GLOBAL_UNCERTAINTY_ASSIGNED_CONTEXT ( ( #170 ) ) GLOBAL_UNIT_ASSIGNED_CONTEXT ( ( #90, #47, #8 ) ) REPRESENTATION_CONTEXT ( 'NONE', 'WORKASPACE' ) );
#59 = CIRCLE ( 'NONE', #161, 0.01215000000000003230 ) ;
#60 = CARTESIAN_POINT ( 'NONE',  ( 1.124522524158922288, 0.000000000000000000, 0.000000000000000000 ) ) ;
#61 = EDGE_CURVE ( 'NONE', #141, #141, #55, .T. ) ;
#62 =( LENGTH_UNIT ( ) NAMED_UNIT ( * ) SI_UNIT ( $, .METRE. ) );
#63 = EDGE_LOOP ( 'NONE', ( #77 ) ) ;
#64 = ORIENTED_EDGE ( 'NONE', *, *, #124, .T. ) ;
#65 = CARTESIAN_POINT ( 'NONE',  ( -0.4417122077728746210, -3.334775382890946312E-19, 0.000000000000000000 ) ) ;
#66 = EDGE_CURVE ( 'NONE', #104, #104, #34, .T. ) ;
#67 = AXIS2_PLACEMENT_3D ( 'NONE', #80, #195, #53 ) ;
#68 = CARTESIAN_POINT ( 'NONE',  ( 0.02085423036742583766, 0.000000000000000000, 0.000000000000000000 ) ) ;
#69 = DIRECTION ( 'NONE',  ( -1.240325414628049685E-16, 1.000000000000000000, 0.000000000000000000 ) ) ;
#70 = ADVANCED_FACE ( 'NONE', ( #211, #92 ), #117, .T. ) ;
#71 = CARTESIAN_POINT ( 'NONE',  ( 1.090999280049948202E-20, 0.000000000000000000, 0.01030000000000000013 ) ) ;
#72 = FACE_BOUND ( 'NONE', #209, .T. ) ;
#73 = AXIS2_PLACEMENT_3D ( 'NONE', #162, #114, #11 ) ;
#74 = ORIENTED_EDGE ( 'NONE', *, *, #61, .F. ) ;
#75 = APPLICATION_CONTEXT ( 'automotive_design' ) ;
#76 = EDGE_LOOP ( 'NONE', ( #175 ) ) ;
#77 = ORIENTED_EDGE ( 'NONE', *, *, #35, .F. ) ;
#78 = DIRECTION ( 'NONE',  ( 1.000000000000000000, 0.000000000000000000, 0.000000000000000000 ) ) ;
#79 = AXIS2_PLACEMENT_3D ( 'NONE', #168, #134, #149 ) ;
#80 = CARTESIAN_POINT ( 'NONE',  ( -0.4499999999999999556, 0.000000000000000000, 0.000000000000000000 ) ) ;
#81 = CARTESIAN_POINT ( 'NONE',  ( 1.124522524158922288, 0.000000000000000000, 0.000000000000000000 ) ) ;
#82 = FACE_OUTER_BOUND ( 'NONE', #144, .T. ) ;
#83 = VERTEX_POINT ( 'NONE', #71 ) ;
#84 = ADVANCED_BREP_SHAPE_REPRESENTATION ( '039-PR4040', ( #150, #5 ), #58 ) ;
#85 = CARTESIAN_POINT ( 'NONE',  ( 1.124522524158922288, 0.000000000000000000, 0.01214999999999989179 ) ) ;
#86 = ADVANCED_FACE ( 'NONE', ( #164, #182 ), #101, .T. ) ;
#87 = ORIENTED_EDGE ( 'NONE', *, *, #35, .T. ) ;
#88 = ORIENTED_EDGE ( 'NONE', *, *, #131, .F. ) ;
#89 = DIRECTION ( 'NONE',  ( 0.000000000000000000, 0.000000000000000000, -1.000000000000000000 ) ) ;
#90 =( CONVERSION_BASED_UNIT ( 'INCH', #43 ) LENGTH_UNIT ( ) NAMED_UNIT ( #51 ) );
#91 = DIRECTION ( 'NONE',  ( -0.000000000000000000, 0.000000000000000000, 1.000000000000000000 ) ) ;
#92 = FACE_OUTER_BOUND ( 'NONE', #186, .T. ) ;
#93 = ADVANCED_FACE ( 'NONE', ( #31 ), #94, .T. ) ;
#94 = PLANE ( 'NONE',  #67 ) ;
#95 = UNCERTAINTY_MEASURE_WITH_UNIT (LENGTH_MEASURE( 1.000000000000000082E-05 ), #140, 'distance_accuracy_value', 'NONE');
#96 = FACE_OUTER_BOUND ( 'NONE', #63, .T. ) ;
#97 = DIRECTION ( 'NONE',  ( 0.000000000000000000, 1.000000000000000000, 0.000000000000000000 ) ) ;
#98 = CYLINDRICAL_SURFACE ( 'NONE', #205, 0.01214999999999996291 ) ;
#99 = FILL_AREA_STYLE ('',( #102 ) ) ;
#100 = CIRCLE ( 'NONE', #135, 0.005999999999968067335 ) ;
#101 = TOROIDAL_SURFACE ( 'NONE', #38, -0.0003999999999999963871, 0.008300000000000000086 ) ;
#102 = FILL_AREA_STYLE_COLOUR ( '', #165 ) ;
#103 = EDGE_CURVE ( 'NONE', #83, #83, #166, .T. ) ;
#104 = VERTEX_POINT ( 'NONE', #18 ) ;
#105 =( LENGTH_UNIT ( ) NAMED_UNIT ( * ) SI_UNIT ( $, .METRE. ) );
#106 = EDGE_CURVE ( 'NONE', #139, #139, #153, .T. ) ;
#107 = CARTESIAN_POINT ( 'NONE',  ( -0.4499999999999999556, 4.999999999999872168E-05, 0.000000000000000000 ) ) ;
#108 = AXIS2_PLACEMENT_3D ( 'NONE', #167, #171, #183 ) ;
#109 = EDGE_LOOP ( 'NONE', ( #88 ) ) ;
#110 = AXIS2_PLACEMENT_3D ( 'NONE', #30, #196, #1 ) ;
#111 = CARTESIAN_POINT ( 'NONE',  ( 1.135000000000000009, 0.005999999999968067335, 0.000000000000000000 ) ) ;
#112 = EDGE_LOOP ( 'NONE', ( #19 ) ) ;
#113 = MECHANICAL_DESIGN_GEOMETRIC_PRESENTATION_REPRESENTATION (  '', ( #10 ), #192 ) ;
#114 = DIRECTION ( 'NONE',  ( 1.000000000000000000, -0.000000000000000000, -0.000000000000000000 ) ) ;
#115 = CARTESIAN_POINT ( 'NONE',  ( 1.090999280049948202E-20, 0.000000000000000000, 0.000000000000000000 ) ) ;
#116 = AXIS2_PLACEMENT_3D ( 'NONE', #179, #78, #32 ) ;
#117 = CYLINDRICAL_SURFACE ( 'NONE', #73, 0.007900000000000002506 ) ;
#118 = DIRECTION ( 'NONE',  ( 0.000000000000000000, 0.000000000000000000, 1.000000000000000000 ) ) ;
#119 = AXIS2_PLACEMENT_3D ( 'NONE', #130, #25, #89 ) ;
#120 = VERTEX_POINT ( 'NONE', #184 ) ;
#121 = VERTEX_POINT ( 'NONE', #23 ) ;
#122 = PRODUCT_DEFINITION_SHAPE ( 'NONE', 'NONE',  #203 ) ;
#123 = DIRECTION ( 'NONE',  ( -1.000000000000000000, -0.000000000000000000, -0.000000000000000000 ) ) ;
#124 = EDGE_CURVE ( 'NONE', #121, #121, #148, .T. ) ;
#125 = VERTEX_POINT ( 'NONE', #107 ) ;
#126 = PRODUCT_DEFINITION_FORMATION_WITH_SPECIFIED_SOURCE ( 'ANY', '', #197, .NOT_KNOWN. ) ;
#127 = FACE_OUTER_BOUND ( 'NONE', #158, .T. ) ;
#128 = CLOSED_SHELL ( 'NONE', ( #191, #49, #22, #41, #29, #16, #70, #86, #93 ) ) ;
#129 = ORIENTED_EDGE ( 'NONE', *, *, #160, .F. ) ;
#130 = CARTESIAN_POINT ( 'NONE',  ( 0.02085423036742583766, 0.000000000000000000, 0.000000000000000000 ) ) ;
#131 = EDGE_CURVE ( 'NONE', #125, #125, #204, .T. ) ;
#132 = DIMENSIONAL_EXPONENTS ( 1.000000000000000000, 0.000000000000000000, 0.000000000000000000, 0.000000000000000000, 0.000000000000000000, 0.000000000000000000, 0.000000000000000000 ) ;
#133 = FACE_OUTER_BOUND ( 'NONE', #24, .T. ) ;
#134 = DIRECTION ( 'NONE',  ( -1.000000000000000000, -0.000000000000000000, -0.000000000000000000 ) ) ;
#135 = AXIS2_PLACEMENT_3D ( 'NONE', #202, #123, #138 ) ;
#136 = DIRECTION ( 'NONE',  ( -1.000000000000000000, -0.000000000000000000, -0.000000000000000000 ) ) ;
#137 = DIRECTION ( 'NONE',  ( 1.000000000000000000, 1.240325414628049685E-16, -0.000000000000000000 ) ) ;
#138 = DIRECTION ( 'NONE',  ( 0.000000000000000000, 0.000000000000000000, 1.000000000000000000 ) ) ;
#139 = VERTEX_POINT ( 'NONE', #201 ) ;
#140 =( CONVERSION_BASED_UNIT ( 'INCH', #17 ) LENGTH_UNIT ( ) NAMED_UNIT ( #132 ) );
#141 = VERTEX_POINT ( 'NONE', #85 ) ;
#142 = DIRECTION ( 'NONE',  ( 0.000000000000000000, 0.000000000000000000, 1.000000000000000000 ) ) ;
#143 = EDGE_LOOP ( 'NONE', ( #42 ) ) ;
#144 = EDGE_LOOP ( 'NONE', ( #74 ) ) ;
#145 = FACE_OUTER_BOUND ( 'NONE', #44, .T. ) ;
#146 = TOROIDAL_SURFACE ( 'NONE', #37, 0.0001500000000000514594, 0.01199999999999983892 ) ;
#147 = CONICAL_SURFACE ( 'NONE', #119, 0.01215000000000003230, 0.2268928027592626018 ) ;
#148 = CIRCLE ( 'NONE', #108, 0.007900000000000002506 ) ;
#149 = DIRECTION ( 'NONE',  ( 0.000000000000000000, 0.000000000000000000, 1.000000000000000000 ) ) ;
#150 = MANIFOLD_SOLID_BREP ( 'Combine1', #128 ) ;
#151 = PRODUCT_RELATED_PRODUCT_CATEGORY ( 'part', '', ( #197 ) ) ;
#152 = SURFACE_STYLE_FILL_AREA ( #99 ) ;
#153 = CIRCLE ( 'NONE', #181, 0.007900000000000002506 ) ;
#154 = ORIENTED_EDGE ( 'NONE', *, *, #124, .F. ) ;
#155 =( NAMED_UNIT ( * ) PLANE_ANGLE_UNIT ( ) SI_UNIT ( $, .RADIAN. ) );
#156 = FACE_BOUND ( 'NONE', #112, .T. ) ;
#157 = ORIENTED_EDGE ( 'NONE', *, *, #61, .T. ) ;
#158 = EDGE_LOOP ( 'NONE', ( #129 ) ) ;
#159 = EDGE_LOOP ( 'NONE', ( #7 ) ) ;
#160 = EDGE_CURVE ( 'NONE', #187, #187, #100, .T. ) ;
#161 = AXIS2_PLACEMENT_3D ( 'NONE', #68, #13, #14 ) ;
#162 = CARTESIAN_POINT ( 'NONE',  ( -0.4499999999999999556, 0.000000000000000000, 0.000000000000000000 ) ) ;
#163 = DIRECTION ( 'NONE',  ( -1.000000000000000000, -0.000000000000000000, -0.000000000000000000 ) ) ;
#164 = FACE_OUTER_BOUND ( 'NONE', #76, .T. ) ;
#165 = COLOUR_RGB ( '',0.7921568627450980005, 0.8196078431372548767, 0.9333333333333333481 ) ;
#166 = CIRCLE ( 'NONE', #189, 0.01030000000000000013 ) ;
#167 = CARTESIAN_POINT ( 'NONE',  ( 0.000000000000000000, 0.000000000000000000, 0.000000000000000000 ) ) ;
#168 = CARTESIAN_POINT ( 'NONE',  ( 0.000000000000000000, 0.000000000000000000, 0.000000000000000000 ) ) ;
#169 = AXIS2_PLACEMENT_3D ( 'NONE', #6, #137, #4 ) ;
#170 = UNCERTAINTY_MEASURE_WITH_UNIT (LENGTH_MEASURE( 1.000000000000000082E-05 ), #90, 'distance_accuracy_value', 'NONE');
#171 = DIRECTION ( 'NONE',  ( 1.000000000000000000, 0.000000000000000000, 0.000000000000000000 ) ) ;
#172 = FACE_OUTER_BOUND ( 'NONE', #190, .T. ) ;
#173 = EDGE_LOOP ( 'NONE', ( #188 ) ) ;
#174 = PRODUCT_CONTEXT ( 'NONE', #45, 'mechanical' ) ;
#175 = ORIENTED_EDGE ( 'NONE', *, *, #106, .F. ) ;
#176 = FACE_OUTER_BOUND ( 'NONE', #48, .T. ) ;
#177 = SHAPE_DEFINITION_REPRESENTATION ( #122, #84 ) ;
#178 = DIRECTION ( 'NONE',  ( -1.000000000000000000, 0.000000000000000000, -0.000000000000000000 ) ) ;
#179 = CARTESIAN_POINT ( 'NONE',  ( 1.429932170840586262E-19, 0.01030000000000000013, 0.000000000000000000 ) ) ;
#180 = DIRECTION ( 'NONE',  ( 0.000000000000000000, 0.000000000000000000, 1.000000000000000000 ) ) ;
#181 = AXIS2_PLACEMENT_3D ( 'NONE', #12, #33, #97 ) ;
#182 = FACE_OUTER_BOUND ( 'NONE', #173, .T. ) ;
#183 = DIRECTION ( 'NONE',  ( 0.000000000000000000, 0.000000000000000000, -1.000000000000000000 ) ) ;
#184 = CARTESIAN_POINT ( 'NONE',  ( 0.02085423036742583766, 0.000000000000000000, 0.01215000000000003230 ) ) ;
#185 = APPLICATION_PROTOCOL_DEFINITION ( 'draft international standard', 'automotive_design', 1998, #75 ) ;
#186 = EDGE_LOOP ( 'NONE', ( #154 ) ) ;
#187 = VERTEX_POINT ( 'NONE', #26 ) ;
#188 = ORIENTED_EDGE ( 'NONE', *, *, #131, .T. ) ;
#189 = AXIS2_PLACEMENT_3D ( 'NONE', #115, #163, #180 ) ;
#190 = EDGE_LOOP ( 'NONE', ( #50 ) ) ;
#191 = ADVANCED_FACE ( 'NONE', ( #82, #172 ), #146, .T. ) ;
#192 =( GEOMETRIC_REPRESENTATION_CONTEXT ( 3 ) GLOBAL_UNCERTAINTY_ASSIGNED_CONTEXT ( ( #95 ) ) GLOBAL_UNIT_ASSIGNED_CONTEXT ( ( #140, #155, #39 ) ) REPRESENTATION_CONTEXT ( 'NONE', 'WORKASPACE' ) );
#193 = DIRECTION ( 'NONE',  ( 1.000000000000000000, 1.240325414628049685E-16, -0.000000000000000000 ) ) ;
#194 = FACE_OUTER_BOUND ( 'NONE', #143, .T. ) ;
#195 = DIRECTION ( 'NONE',  ( -1.000000000000000000, 0.000000000000000000, 0.000000000000000000 ) ) ;
#196 = DIRECTION ( 'NONE',  ( -1.000000000000000000, -0.000000000000000000, -0.000000000000000000 ) ) ;
#197 = PRODUCT ( '039-PR4040', '039-PR4040', '', ( #174 ) ) ;
#198 = DIRECTION ( 'NONE',  ( 0.000000000000000000, 0.000000000000000000, 1.000000000000000000 ) ) ;
#199 = SURFACE_STYLE_USAGE ( .BOTH. , #36 ) ;
#200 = DIRECTION ( 'NONE',  ( -1.000000000000000000, -0.000000000000000000, -0.000000000000000000 ) ) ;
#201 = CARTESIAN_POINT ( 'NONE',  ( -0.4417122077728746210, 0.007900000000000002506, 0.000000000000000000 ) ) ;
#202 = CARTESIAN_POINT ( 'NONE',  ( 1.135000000000000009, 0.000000000000000000, 0.000000000000000000 ) ) ;
#203 = PRODUCT_DEFINITION ( 'UNKNOWN', '', #126, #54 ) ;
#204 = CIRCLE ( 'NONE', #169, 5.000000000000005661E-05 ) ;
#205 = AXIS2_PLACEMENT_3D ( 'NONE', #56, #52, #198 ) ;
#206 = FACE_OUTER_BOUND ( 'NONE', #159, .T. ) ;
#207 = APPLICATION_PROTOCOL_DEFINITION ( 'draft international standard', 'automotive_design', 1998, #45 ) ;
#208 = ORIENTED_EDGE ( 'NONE', *, *, #66, .T. ) ;
#209 = EDGE_LOOP ( 'NONE', ( #64 ) ) ;
#210 = ORIENTED_EDGE ( 'NONE', *, *, #106, .T. ) ;
#211 = FACE_OUTER_BOUND ( 'NONE', #27, .T. ) ;
ENDSEC;
END-ISO-10303-21;
