ISO-10303-21;
HEADER;
FILE_DESCRIPTION (( 'STEP AP214' ),
    '1' );
FILE_NAME ('050-SPT.STEP',
    '2020-09-28T13:48:07',
    ( '' ),
    ( '' ),
    'SwSTEP 2.0',
    'SolidWorks 2019',
    '' );
FILE_SCHEMA (( 'AUTOMOTIVE_DESIGN' ));
ENDSEC;

DATA;
#1 = VERTEX_POINT ( 'NONE', #141 ) ;
#2 = FACE_OUTER_BOUND ( 'NONE', #71, .T. ) ;
#3 = DIRECTION ( 'NONE',  ( 0.0000000000000000000, 0.0000000000000000000, 1.000000000000000000 ) ) ;
#4 = ADVANCED_FACE ( 'NONE', ( #138, #143 ), #173, .T. ) ;
#5 = VERTEX_POINT ( 'NONE', #102 ) ;
#6 = CIRCLE ( 'NONE', #45, 0.01540000000000000049 ) ;
#7 = CARTESIAN_POINT ( 'NONE',  ( 0.0000000000000000000, 1.148000000000000131, 0.0000000000000000000 ) ) ;
#8 = SURFACE_STYLE_FILL_AREA ( #166 ) ;
#9 = ORIENTED_EDGE ( 'NONE', *, *, #51, .F. ) ;
#10 = ADVANCED_FACE ( 'NONE', ( #25, #272 ), #125, .T. ) ;
#11 = FACE_OUTER_BOUND ( 'NONE', #222, .T. ) ;
#12 = AXIS2_PLACEMENT_3D ( 'NONE', #40, #255, #36 ) ;
#13 = DIRECTION ( 'NONE',  ( 0.0000000000000000000, 0.0000000000000000000, -1.000000000000000000 ) ) ;
#14 = CARTESIAN_POINT ( 'NONE',  ( 0.0000000000000000000, 0.09300000000000006872, -0.01540000000000000049 ) ) ;
#15 = SURFACE_SIDE_STYLE ('',( #235 ) ) ;
#16 = EDGE_LOOP ( 'NONE', ( #20 ) ) ;
#17 = FACE_OUTER_BOUND ( 'NONE', #27, .T. ) ;
#18 = AXIS2_PLACEMENT_3D ( 'NONE', #121, #87, #234 ) ;
#19 = PRESENTATION_STYLE_ASSIGNMENT (( #229 ) ) ;
#20 = ORIENTED_EDGE ( 'NONE', *, *, #289, .F. ) ;
#21 = EDGE_CURVE ( 'NONE', #1, #1, #107, .T. ) ;
#22 = AXIS2_PLACEMENT_3D ( 'NONE', #7, #104, #84 ) ;
#23 = DIRECTION ( 'NONE',  ( 0.0000000000000000000, 0.0000000000000000000, 1.000000000000000000 ) ) ;
#24 = CARTESIAN_POINT ( 'NONE',  ( 0.0000000000000000000, 1.388129369167700053E-18, -0.01176794919243112116 ) ) ;
#25 = FACE_OUTER_BOUND ( 'NONE', #68, .T. ) ;
#26 = ADVANCED_FACE ( 'NONE', ( #230, #277 ), #273, .T. ) ;
#27 = EDGE_LOOP ( 'NONE', ( #97 ) ) ;
#28 = VERTEX_POINT ( 'NONE', #118 ) ;
#29 = CARTESIAN_POINT ( 'NONE',  ( 0.0000000000000000000, 0.08300000000000000433, -0.01309999999999999012 ) ) ;
#30 = PLANE ( 'NONE',  #207 ) ;
#31 = CLOSED_SHELL ( 'NONE', ( #150, #100, #4, #161, #113, #116, #206, #26, #10, #55, #257, #101 ) ) ;
#32 = DIRECTION ( 'NONE',  ( 0.0000000000000000000, 1.000000000000000000, 0.0000000000000000000 ) ) ;
#33 = DIRECTION ( 'NONE',  ( 0.0000000000000000000, 0.0000000000000000000, -1.000000000000000000 ) ) ;
#34 = VERTEX_POINT ( 'NONE', #78 ) ;
#35 = CARTESIAN_POINT ( 'NONE',  ( 0.0000000000000000000, 0.08300000000000000433, 0.0000000000000000000 ) ) ;
#36 = DIRECTION ( 'NONE',  ( 0.0000000000000000000, 0.0000000000000000000, 1.000000000000000000 ) ) ;
#37 = EDGE_CURVE ( 'NONE', #137, #137, #95, .T. ) ;
#38 = CIRCLE ( 'NONE', #79, 0.01176794919243112116 ) ;
#39 = DIRECTION ( 'NONE',  ( -0.0000000000000000000, -1.000000000000000000, -0.0000000000000000000 ) ) ;
#40 = CARTESIAN_POINT ( 'NONE',  ( 0.0000000000000000000, 1.148000000000000131, 0.0000000000000000000 ) ) ;
#41 = CARTESIAN_POINT ( 'NONE',  ( 0.0000000000000000000, 0.001960769515458675536, 0.0000000000000000000 ) ) ;
#42 =( NAMED_UNIT ( * ) PLANE_ANGLE_UNIT ( ) SI_UNIT ( $, .RADIAN. ) );
#43 = ORIENTED_EDGE ( 'NONE', *, *, #180, .T. ) ;
#44 =( CONVERSION_BASED_UNIT ( 'INCH', #152 ) LENGTH_UNIT ( ) NAMED_UNIT ( #83 ) );
#45 = AXIS2_PLACEMENT_3D ( 'NONE', #270, #50, #183 ) ;
#46 = SHAPE_DEFINITION_REPRESENTATION ( #153, #249 ) ;
#47 = EDGE_LOOP ( 'NONE', ( #94 ) ) ;
#48 = ORIENTED_EDGE ( 'NONE', *, *, #77, .T. ) ;
#49 = AXIS2_PLACEMENT_3D ( 'NONE', #109, #172, #85 ) ;
#50 = DIRECTION ( 'NONE',  ( -0.0000000000000000000, -1.000000000000000000, -0.0000000000000000000 ) ) ;
#51 = EDGE_CURVE ( 'NONE', #226, #226, #38, .T. ) ;
#52 = PRODUCT_DEFINITION_CONTEXT ( 'detailed design', #267, 'design' ) ;
#53 = AXIS2_PLACEMENT_3D ( 'NONE', #131, #262, #156 ) ;
#54 = TOROIDAL_SURFACE ( 'NONE', #58, 0.02109999999999998682, 0.007999999999999991493 ) ;
#55 = ADVANCED_FACE ( 'NONE', ( #132, #66 ), #140, .F. ) ;
#56 = EDGE_LOOP ( 'NONE', ( #114 ) ) ;
#57 =( NAMED_UNIT ( * ) PLANE_ANGLE_UNIT ( ) SI_UNIT ( $, .RADIAN. ) );
#58 = AXIS2_PLACEMENT_3D ( 'NONE', #35, #39, #241 ) ;
#59 = CARTESIAN_POINT ( 'NONE',  ( 0.0000000000000000000, 1.143008447135409833, 0.01539999999999995366 ) ) ;
#60 = FACE_OUTER_BOUND ( 'NONE', #201, .T. ) ;
#61 = DIRECTION ( 'NONE',  ( 0.0000000000000000000, 0.0000000000000000000, 1.000000000000000000 ) ) ;
#62 = AXIS2_PLACEMENT_3D ( 'NONE', #108, #283, #64 ) ;
#63 = FACE_OUTER_BOUND ( 'NONE', #224, .T. ) ;
#64 = DIRECTION ( 'NONE',  ( 0.0000000000000000000, -0.0000000000000000000, 1.000000000000000000 ) ) ;
#65 = EDGE_LOOP ( 'NONE', ( #268 ) ) ;
#66 = FACE_OUTER_BOUND ( 'NONE', #47, .T. ) ;
#67 = CARTESIAN_POINT ( 'NONE',  ( 0.0000000000000000000, 0.0000000000000000000, 0.0000000000000000000 ) ) ;
#68 = EDGE_LOOP ( 'NONE', ( #133 ) ) ;
#69 = EDGE_CURVE ( 'NONE', #139, #139, #209, .T. ) ;
#70 = COLOUR_RGB ( '',0.7529411764705882248, 0.7529411764705882248, 0.7529411764705882248 ) ;
#71 = EDGE_LOOP ( 'NONE', ( #198 ) ) ;
#72 = EDGE_LOOP ( 'NONE', ( #271 ) ) ;
#73 = ORIENTED_EDGE ( 'NONE', *, *, #51, .T. ) ;
#74 = AXIS2_PLACEMENT_3D ( 'NONE', #41, #192, #151 ) ;
#75 = DIRECTION ( 'NONE',  ( -0.0000000000000000000, -1.000000000000000000, -0.0000000000000000000 ) ) ;
#76 = CARTESIAN_POINT ( 'NONE',  ( 0.0000000000000000000, 0.001960769515458679006, 0.0000000000000000000 ) ) ;
#77 = EDGE_CURVE ( 'NONE', #28, #28, #146, .T. ) ;
#78 = CARTESIAN_POINT ( 'NONE',  ( 0.0000000000000000000, 0.001960769515458679006, -0.01310000000000000053 ) ) ;
#79 = AXIS2_PLACEMENT_3D ( 'NONE', #287, #154, #239 ) ;
#80 = DIRECTION ( 'NONE',  ( -0.0000000000000000000, 1.000000000000000000, -0.0000000000000000000 ) ) ;
#81 = APPLICATION_PROTOCOL_DEFINITION ( 'draft international standard', 'automotive_design', 1998, #124 ) ;
#82 =( LENGTH_UNIT ( ) NAMED_UNIT ( * ) SI_UNIT ( $, .METRE. ) );
#83 = DIMENSIONAL_EXPONENTS ( 1.000000000000000000, 0.0000000000000000000, 0.0000000000000000000, 0.0000000000000000000, 0.0000000000000000000, 0.0000000000000000000, 0.0000000000000000000 ) ;
#84 = DIRECTION ( 'NONE',  ( 0.0000000000000000000, 0.0000000000000000000, 1.000000000000000000 ) ) ;
#85 = DIRECTION ( 'NONE',  ( 0.0000000000000000000, 0.0000000000000000000, -1.000000000000000000 ) ) ;
#86 = CARTESIAN_POINT ( 'NONE',  ( 0.0000000000000000000, 0.09300000000000006872, 0.0000000000000000000 ) ) ;
#87 = DIRECTION ( 'NONE',  ( -0.0000000000000000000, -1.000000000000000000, -0.0000000000000000000 ) ) ;
#88 = DIRECTION ( 'NONE',  ( -0.0000000000000000000, -1.000000000000000000, -0.0000000000000000000 ) ) ;
#89 = CYLINDRICAL_SURFACE ( 'NONE', #247, 0.01540000000000000049 ) ;
#90 = APPLICATION_PROTOCOL_DEFINITION ( 'draft international standard', 'automotive_design', 1998, #267 ) ;
#91 = CARTESIAN_POINT ( 'NONE',  ( 0.0000000000000000000, 0.08649510874726942800, 0.0000000000000000000 ) ) ;
#92 = EDGE_LOOP ( 'NONE', ( #111 ) ) ;
#93 = DIRECTION ( 'NONE',  ( -0.0000000000000000000, -1.000000000000000000, -0.0000000000000000000 ) ) ;
#94 = ORIENTED_EDGE ( 'NONE', *, *, #37, .F. ) ;
#95 = CIRCLE ( 'NONE', #22, 0.01378000000000000579 ) ;
#96 = STYLED_ITEM ( 'NONE', ( #19 ), #249 ) ;
#97 = ORIENTED_EDGE ( 'NONE', *, *, #69, .F. ) ;
#98 = EDGE_LOOP ( 'NONE', ( #9 ) ) ;
#99 = PRESENTATION_LAYER_ASSIGNMENT (  '', '', ( #236 ) ) ;
#100 = ADVANCED_FACE ( 'NONE', ( #282, #215 ), #89, .T. ) ;
#101 = ADVANCED_FACE ( 'NONE', ( #119 ), #30, .F. ) ;
#102 = CARTESIAN_POINT ( 'NONE',  ( 0.0000000000000000000, 0.001460769515458669888, -0.01323397459621556381 ) ) ;
#103 = FILL_AREA_STYLE_COLOUR ( '', #70 ) ;
#104 = DIRECTION ( 'NONE',  ( -0.0000000000000000000, 1.000000000000000000, -0.0000000000000000000 ) ) ;
#105 = SURFACE_SIDE_STYLE ('',( #8 ) ) ;
#106 = FACE_OUTER_BOUND ( 'NONE', #202, .T. ) ;
#107 = CIRCLE ( 'NONE', #182, 0.01435176470588231390 ) ;
#108 = CARTESIAN_POINT ( 'NONE',  ( 0.01290000000000000695, 1.177999999999999936, 0.0000000000000000000 ) ) ;
#109 = CARTESIAN_POINT ( 'NONE',  ( 0.0000000000000000000, 0.001460769515458669888, 0.0000000000000000000 ) ) ;
#110 = FACE_BOUND ( 'NONE', #288, .T. ) ;
#111 = ORIENTED_EDGE ( 'NONE', *, *, #175, .T. ) ;
#112 = AXIS2_PLACEMENT_3D ( 'NONE', #213, #117, #3 ) ;
#113 = ADVANCED_FACE ( 'NONE', ( #187, #163 ), #142, .T. ) ;
#114 = ORIENTED_EDGE ( 'NONE', *, *, #122, .T. ) ;
#115 = EDGE_LOOP ( 'NONE', ( #204 ) ) ;
#116 = ADVANCED_FACE ( 'NONE', ( #63, #11 ), #136, .F. ) ;
#117 = DIRECTION ( 'NONE',  ( -0.0000000000000000000, 1.000000000000000000, -0.0000000000000000000 ) ) ;
#118 = CARTESIAN_POINT ( 'NONE',  ( 0.0000000000000000000, 1.177999999999999936, 0.01377999999999999191 ) ) ;
#119 = FACE_OUTER_BOUND ( 'NONE', #261, .T. ) ;
#120 = VERTEX_POINT ( 'NONE', #185 ) ;
#121 = CARTESIAN_POINT ( 'NONE',  ( 0.0000000000000000000, 0.0000000000000000000, 0.0000000000000000000 ) ) ;
#122 = EDGE_CURVE ( 'NONE', #120, #120, #123, .T. ) ;
#123 = CIRCLE ( 'NONE', #284, 0.01390387501187195611 ) ;
#124 = APPLICATION_CONTEXT ( 'automotive_design' ) ;
#125 = CYLINDRICAL_SURFACE ( 'NONE', #112, 0.01377999999999999885 ) ;
#126 =( CONVERSION_BASED_UNIT ( 'INCH', #252 ) LENGTH_UNIT ( ) NAMED_UNIT ( #147 ) );
#127 = SURFACE_STYLE_USAGE ( .BOTH. , #15 ) ;
#128 = AXIS2_PLACEMENT_3D ( 'NONE', #228, #178, #23 ) ;
#129 = FILL_AREA_STYLE_COLOUR ( '', #158 ) ;
#130 =( NAMED_UNIT ( * ) PLANE_ANGLE_UNIT ( ) SI_UNIT ( $, .RADIAN. ) );
#131 = CARTESIAN_POINT ( 'NONE',  ( 0.0000000000000000000, 0.001000000000000004574, 0.0000000000000000000 ) ) ;
#132 = FACE_OUTER_BOUND ( 'NONE', #72, .T. ) ;
#133 = ORIENTED_EDGE ( 'NONE', *, *, #37, .T. ) ;
#134 = AXIS2_PLACEMENT_3D ( 'NONE', #169, #254, #238 ) ;
#135 = ORIENTED_EDGE ( 'NONE', *, *, #69, .T. ) ;
#136 = TOROIDAL_SURFACE ( 'NONE', #74, 0.01410000000000000142, 0.001000000000000001105 ) ;
#137 = VERTEX_POINT ( 'NONE', #181 ) ;
#138 = FACE_OUTER_BOUND ( 'NONE', #266, .T. ) ;
#139 = VERTEX_POINT ( 'NONE', #29 ) ;
#140 = TOROIDAL_SURFACE ( 'NONE', #12, 0.01677999999999999631, 0.002999999999999990955 ) ;
#141 = CARTESIAN_POINT ( 'NONE',  ( 0.0000000000000000000, 1.146238275459556366, 0.01435176470588231390 ) ) ;
#142 = CYLINDRICAL_SURFACE ( 'NONE', #18, 0.01309999999999999533 ) ;
#143 = FACE_OUTER_BOUND ( 'NONE', #65, .T. ) ;
#144 = CARTESIAN_POINT ( 'NONE',  ( 0.0000000000000000000, 0.001000000000000004574, -0.01349999999999999985 ) ) ;
#145 = ORIENTED_EDGE ( 'NONE', *, *, #289, .T. ) ;
#146 = CIRCLE ( 'NONE', #203, 0.01377999999999999191 ) ;
#147 = DIMENSIONAL_EXPONENTS ( 1.000000000000000000, 0.0000000000000000000, 0.0000000000000000000, 0.0000000000000000000, 0.0000000000000000000, 0.0000000000000000000, 0.0000000000000000000 ) ;
#148 = CARTESIAN_POINT ( 'NONE',  ( 0.0000000000000000000, 6.940646845838500266E-19, 0.0000000000000000000 ) ) ;
#149 = VERTEX_POINT ( 'NONE', #144 ) ;
#150 = ADVANCED_FACE ( 'NONE', ( #60 ), #193, .T. ) ;
#151 = DIRECTION ( 'NONE',  ( 0.0000000000000000000, 0.0000000000000000000, -1.000000000000000000 ) ) ;
#152 = LENGTH_MEASURE_WITH_UNIT ( LENGTH_MEASURE( 0.02539999999999999897 ), #258 );
#153 = PRODUCT_DEFINITION_SHAPE ( 'NONE', 'NONE',  #168 ) ;
#154 = DIRECTION ( 'NONE',  ( -0.0000000000000000000, -1.000000000000000000, -0.0000000000000000000 ) ) ;
#155 = DIRECTION ( 'NONE',  ( 1.000000000000000000, 0.0000000000000000000, 0.0000000000000000000 ) ) ;
#156 = DIRECTION ( 'NONE',  ( 0.0000000000000000000, 0.0000000000000000000, -1.000000000000000000 ) ) ;
#157 = ORIENTED_EDGE ( 'NONE', *, *, #180, .F. ) ;
#158 = COLOUR_RGB ( '',0.7529411764705882248, 0.7529411764705882248, 0.7529411764705882248 ) ;
#159 = PRODUCT_DEFINITION_FORMATION_WITH_SPECIFIED_SOURCE ( 'ANY', '', #189, .NOT_KNOWN. ) ;
#160 = ORIENTED_EDGE ( 'NONE', *, *, #175, .F. ) ;
#161 = ADVANCED_FACE ( 'NONE', ( #280, #17 ), #54, .F. ) ;
#162 = MECHANICAL_DESIGN_GEOMETRIC_PRESENTATION_REPRESENTATION (  '', ( #236 ), #242 ) ;
#163 = FACE_OUTER_BOUND ( 'NONE', #177, .T. ) ;
#164 = UNCERTAINTY_MEASURE_WITH_UNIT (LENGTH_MEASURE( 1.000000000000000082E-05 ), #44, 'distance_accuracy_value', 'NONE');
#165 = DIRECTION ( 'NONE',  ( 0.0000000000000000000, 0.0000000000000000000, 1.000000000000000000 ) ) ;
#166 = FILL_AREA_STYLE ('',( #103 ) ) ;
#167 = CIRCLE ( 'NONE', #259, 0.01310000000000000053 ) ;
#168 = PRODUCT_DEFINITION ( 'UNKNOWN', '', #159, #52 ) ;
#169 = CARTESIAN_POINT ( 'NONE',  ( 0.0000000000000000000, 1.143008447135409833, 0.0000000000000000000 ) ) ;
#170 = FILL_AREA_STYLE ('',( #129 ) ) ;
#171 = DIRECTION ( 'NONE',  ( -0.0000000000000000000, 1.000000000000000000, -0.0000000000000000000 ) ) ;
#172 = DIRECTION ( 'NONE',  ( -0.0000000000000000000, -1.000000000000000000, -0.0000000000000000000 ) ) ;
#173 = TOROIDAL_SURFACE ( 'NONE', #232, 0.0005108695652171091773, 0.01488913043478288893 ) ;
#174 = PRESENTATION_LAYER_ASSIGNMENT (  '', '', ( #96 ) ) ;
#175 = EDGE_CURVE ( 'NONE', #149, #149, #217, .T. ) ;
#176 = CARTESIAN_POINT ( 'NONE',  ( 0.0000000000000000000, 0.0000000000000000000, 0.0000000000000000000 ) ) ;
#177 = EDGE_LOOP ( 'NONE', ( #246 ) ) ;
#178 = DIRECTION ( 'NONE',  ( -0.0000000000000000000, 1.000000000000000000, -0.0000000000000000000 ) ) ;
#179 = EDGE_LOOP ( 'NONE', ( #248 ) ) ;
#180 = EDGE_CURVE ( 'NONE', #5, #5, #221, .T. ) ;
#181 = CARTESIAN_POINT ( 'NONE',  ( 0.0000000000000000000, 1.148000000000000131, 0.01378000000000000579 ) ) ;
#182 = AXIS2_PLACEMENT_3D ( 'NONE', #184, #80, #165 ) ;
#183 = DIRECTION ( 'NONE',  ( 0.0000000000000000000, 0.0000000000000000000, -1.000000000000000000 ) ) ;
#184 = CARTESIAN_POINT ( 'NONE',  ( 0.0000000000000000000, 1.146238275459556366, 0.0000000000000000000 ) ) ;
#185 = CARTESIAN_POINT ( 'NONE',  ( 0.0000000000000000000, 0.08649510874726942800, -0.01390387501187195611 ) ) ;
#186 = UNCERTAINTY_MEASURE_WITH_UNIT (LENGTH_MEASURE( 1.000000000000000082E-05 ), #126, 'distance_accuracy_value', 'NONE');
#187 = FACE_OUTER_BOUND ( 'NONE', #240, .T. ) ;
#188 = AXIS2_PLACEMENT_3D ( 'NONE', #194, #88, #13 ) ;
#189 = PRODUCT ( '050-SPT', '050-SPT', '', ( #195 ) ) ;
#190 = DIRECTION ( 'NONE',  ( -0.0000000000000000000, -1.000000000000000000, -0.0000000000000000000 ) ) ;
#191 =( GEOMETRIC_REPRESENTATION_CONTEXT ( 3 ) GLOBAL_UNCERTAINTY_ASSIGNED_CONTEXT ( ( #186 ) ) GLOBAL_UNIT_ASSIGNED_CONTEXT ( ( #126, #57, #211 ) ) REPRESENTATION_CONTEXT ( 'NONE', 'WORKASPACE' ) );
#192 = DIRECTION ( 'NONE',  ( -0.0000000000000000000, -1.000000000000000000, -0.0000000000000000000 ) ) ;
#193 = PLANE ( 'NONE',  #62 ) ;
#194 = CARTESIAN_POINT ( 'NONE',  ( 0.0000000000000000000, 0.08300000000000000433, 0.0000000000000000000 ) ) ;
#195 = PRODUCT_CONTEXT ( 'NONE', #124, 'mechanical' ) ;
#196 = DIRECTION ( 'NONE',  ( 0.0000000000000000000, 0.0000000000000000000, -1.000000000000000000 ) ) ;
#197 = CONICAL_SURFACE ( 'NONE', #253, 0.01349999999999999985, 0.5235987755983020353 ) ;
#198 = ORIENTED_EDGE ( 'NONE', *, *, #21, .F. ) ;
#199 = AXIS2_PLACEMENT_3D ( 'NONE', #67, #237, #155 ) ;
#200 = CARTESIAN_POINT ( 'NONE',  ( 0.0000000000000000000, 1.177999999999999936, 0.0000000000000000000 ) ) ;
#201 = EDGE_LOOP ( 'NONE', ( #48 ) ) ;
#202 = EDGE_LOOP ( 'NONE', ( #160 ) ) ;
#203 = AXIS2_PLACEMENT_3D ( 'NONE', #200, #171, #61 ) ;
#204 = ORIENTED_EDGE ( 'NONE', *, *, #77, .F. ) ;
#205 = MANIFOLD_SOLID_BREP ( 'Revolve Solid', #31 ) ;
#206 = ADVANCED_FACE ( 'NONE', ( #110, #106 ), #197, .T. ) ;
#207 = AXIS2_PLACEMENT_3D ( 'NONE', #148, #208, #233 ) ;
#208 = DIRECTION ( 'NONE',  ( -0.0000000000000000000, 1.000000000000000000, 0.0000000000000000000 ) ) ;
#209 = CIRCLE ( 'NONE', #188, 0.01309999999999999012 ) ;
#210 = CARTESIAN_POINT ( 'NONE',  ( 0.0000000000000000000, 1.388129369167700053E-18, 0.0000000000000000000 ) ) ;
#211 =( NAMED_UNIT ( * ) SI_UNIT ( $, .STERADIAN. ) SOLID_ANGLE_UNIT ( ) );
#212 = DIRECTION ( 'NONE',  ( 0.0000000000000000000, 0.0000000000000000000, 1.000000000000000000 ) ) ;
#213 = CARTESIAN_POINT ( 'NONE',  ( 0.0000000000000000000, 1.188290692636039259, 0.0000000000000000000 ) ) ;
#214 =( NAMED_UNIT ( * ) SI_UNIT ( $, .STERADIAN. ) SOLID_ANGLE_UNIT ( ) );
#215 = FACE_OUTER_BOUND ( 'NONE', #245, .T. ) ;
#216 = CIRCLE ( 'NONE', #134, 0.01539999999999995366 ) ;
#217 = CIRCLE ( 'NONE', #53, 0.01349999999999999985 ) ;
#218 = DIRECTION ( 'NONE',  ( 0.0000000000000000000, 0.0000000000000000000, -1.000000000000000000 ) ) ;
#219 =( NAMED_UNIT ( * ) SI_UNIT ( $, .STERADIAN. ) SOLID_ANGLE_UNIT ( ) );
#220 =( LENGTH_UNIT ( ) NAMED_UNIT ( * ) SI_UNIT ( $, .METRE. ) );
#221 = CIRCLE ( 'NONE', #49, 0.01323397459621556381 ) ;
#222 = EDGE_LOOP ( 'NONE', ( #157 ) ) ;
#223 = DIRECTION ( 'NONE',  ( -0.0000000000000000000, -1.000000000000000000, -0.0000000000000000000 ) ) ;
#224 = EDGE_LOOP ( 'NONE', ( #244 ) ) ;
#225 = DIRECTION ( 'NONE',  ( 0.0000000000000000000, 0.0000000000000000000, -1.000000000000000000 ) ) ;
#226 = VERTEX_POINT ( 'NONE', #24 ) ;
#227 = DIRECTION ( 'NONE',  ( 0.0000000000000000000, 0.0000000000000000000, -1.000000000000000000 ) ) ;
#228 = CARTESIAN_POINT ( 'NONE',  ( 0.0000000000000000000, 1.143008447135409833, 0.0000000000000000000 ) ) ;
#229 = SURFACE_STYLE_USAGE ( .BOTH. , #105 ) ;
#230 = FACE_OUTER_BOUND ( 'NONE', #92, .T. ) ;
#231 = PRODUCT_RELATED_PRODUCT_CATEGORY ( 'part', '', ( #189 ) ) ;
#232 = AXIS2_PLACEMENT_3D ( 'NONE', #86, #75, #33 ) ;
#233 = DIRECTION ( 'NONE',  ( 0.0000000000000000000, 0.0000000000000000000, 1.000000000000000000 ) ) ;
#234 = DIRECTION ( 'NONE',  ( 0.0000000000000000000, 0.0000000000000000000, -1.000000000000000000 ) ) ;
#235 = SURFACE_STYLE_FILL_AREA ( #170 ) ;
#236 = STYLED_ITEM ( 'NONE', ( #281 ), #205 ) ;
#237 = DIRECTION ( 'NONE',  ( 0.0000000000000000000, 0.0000000000000000000, 1.000000000000000000 ) ) ;
#238 = DIRECTION ( 'NONE',  ( 0.0000000000000000000, 0.0000000000000000000, 1.000000000000000000 ) ) ;
#239 = DIRECTION ( 'NONE',  ( 0.0000000000000000000, 0.0000000000000000000, -1.000000000000000000 ) ) ;
#240 = EDGE_LOOP ( 'NONE', ( #135 ) ) ;
#241 = DIRECTION ( 'NONE',  ( 0.0000000000000000000, 0.0000000000000000000, -1.000000000000000000 ) ) ;
#242 =( GEOMETRIC_REPRESENTATION_CONTEXT ( 3 ) GLOBAL_UNCERTAINTY_ASSIGNED_CONTEXT ( ( #164 ) ) GLOBAL_UNIT_ASSIGNED_CONTEXT ( ( #44, #130, #214 ) ) REPRESENTATION_CONTEXT ( 'NONE', 'WORKASPACE' ) );
#243 = MECHANICAL_DESIGN_GEOMETRIC_PRESENTATION_REPRESENTATION (  '', ( #96 ), #274 ) ;
#244 = ORIENTED_EDGE ( 'NONE', *, *, #285, .T. ) ;
#245 = EDGE_LOOP ( 'NONE', ( #264 ) ) ;
#246 = ORIENTED_EDGE ( 'NONE', *, *, #285, .F. ) ;
#247 = AXIS2_PLACEMENT_3D ( 'NONE', #176, #223, #225 ) ;
#248 = ORIENTED_EDGE ( 'NONE', *, *, #250, .T. ) ;
#249 = ADVANCED_BREP_SHAPE_REPRESENTATION ( '050-SPT', ( #205, #199 ), #191 ) ;
#250 = EDGE_CURVE ( 'NONE', #279, #279, #216, .T. ) ;
#251 = TOROIDAL_SURFACE ( 'NONE', #128, 0.009899999999999943567, 0.005500000000000010089 ) ;
#252 = LENGTH_MEASURE_WITH_UNIT ( LENGTH_MEASURE( 0.02539999999999999897 ), #82 );
#253 = AXIS2_PLACEMENT_3D ( 'NONE', #286, #190, #196 ) ;
#254 = DIRECTION ( 'NONE',  ( -0.0000000000000000000, 1.000000000000000000, -0.0000000000000000000 ) ) ;
#255 = DIRECTION ( 'NONE',  ( -0.0000000000000000000, 1.000000000000000000, -0.0000000000000000000 ) ) ;
#256 = DIMENSIONAL_EXPONENTS ( 1.000000000000000000, 0.0000000000000000000, 0.0000000000000000000, 0.0000000000000000000, 0.0000000000000000000, 0.0000000000000000000, 0.0000000000000000000 ) ;
#257 = ADVANCED_FACE ( 'NONE', ( #269, #2 ), #251, .T. ) ;
#258 =( LENGTH_UNIT ( ) NAMED_UNIT ( * ) SI_UNIT ( $, .METRE. ) );
#259 = AXIS2_PLACEMENT_3D ( 'NONE', #76, #275, #227 ) ;
#260 =( CONVERSION_BASED_UNIT ( 'INCH', #263 ) LENGTH_UNIT ( ) NAMED_UNIT ( #256 ) );
#261 = EDGE_LOOP ( 'NONE', ( #73 ) ) ;
#262 = DIRECTION ( 'NONE',  ( -0.0000000000000000000, -1.000000000000000000, -0.0000000000000000000 ) ) ;
#263 = LENGTH_MEASURE_WITH_UNIT ( LENGTH_MEASURE( 0.02539999999999999897 ), #220 );
#264 = ORIENTED_EDGE ( 'NONE', *, *, #250, .F. ) ;
#265 = AXIS2_PLACEMENT_3D ( 'NONE', #210, #32, #212 ) ;
#266 = EDGE_LOOP ( 'NONE', ( #145 ) ) ;
#267 = APPLICATION_CONTEXT ( 'automotive_design' ) ;
#268 = ORIENTED_EDGE ( 'NONE', *, *, #122, .F. ) ;
#269 = FACE_OUTER_BOUND ( 'NONE', #179, .T. ) ;
#270 = CARTESIAN_POINT ( 'NONE',  ( 0.0000000000000000000, 0.09300000000000006872, 0.0000000000000000000 ) ) ;
#271 = ORIENTED_EDGE ( 'NONE', *, *, #21, .T. ) ;
#272 = FACE_OUTER_BOUND ( 'NONE', #115, .T. ) ;
#273 = CONICAL_SURFACE ( 'NONE', #265, 0.01176794919243112116, 1.047197551196596521 ) ;
#274 =( GEOMETRIC_REPRESENTATION_CONTEXT ( 3 ) GLOBAL_UNCERTAINTY_ASSIGNED_CONTEXT ( ( #276 ) ) GLOBAL_UNIT_ASSIGNED_CONTEXT ( ( #260, #42, #219 ) ) REPRESENTATION_CONTEXT ( 'NONE', 'WORKASPACE' ) );
#275 = DIRECTION ( 'NONE',  ( -0.0000000000000000000, -1.000000000000000000, -0.0000000000000000000 ) ) ;
#276 = UNCERTAINTY_MEASURE_WITH_UNIT (LENGTH_MEASURE( 1.000000000000000082E-05 ), #260, 'distance_accuracy_value', 'NONE');
#277 = FACE_BOUND ( 'NONE', #98, .T. ) ;
#278 = VERTEX_POINT ( 'NONE', #14 ) ;
#279 = VERTEX_POINT ( 'NONE', #59 ) ;
#280 = FACE_OUTER_BOUND ( 'NONE', #56, .T. ) ;
#281 = PRESENTATION_STYLE_ASSIGNMENT (( #127 ) ) ;
#282 = FACE_OUTER_BOUND ( 'NONE', #16, .T. ) ;
#283 = DIRECTION ( 'NONE',  ( 0.0000000000000000000, 1.000000000000000000, 0.0000000000000000000 ) ) ;
#284 = AXIS2_PLACEMENT_3D ( 'NONE', #91, #93, #218 ) ;
#285 = EDGE_CURVE ( 'NONE', #34, #34, #167, .T. ) ;
#286 = CARTESIAN_POINT ( 'NONE',  ( 0.0000000000000000000, 0.001000000000000004574, 0.0000000000000000000 ) ) ;
#287 = CARTESIAN_POINT ( 'NONE',  ( 0.0000000000000000000, 1.388129369167700053E-18, 0.0000000000000000000 ) ) ;
#288 = EDGE_LOOP ( 'NONE', ( #43 ) ) ;
#289 = EDGE_CURVE ( 'NONE', #278, #278, #6, .T. ) ;
ENDSEC;
END-ISO-10303-21;
