ISO-10303-21;
HEADER;
FILE_DESCRIPTION (( 'STEP AP214' ),
    '1' );
FILE_NAME ('075-SPR.STEP',
    '2020-09-28T13:50:03',
    ( '' ),
    ( '' ),
    'SwSTEP 2.0',
    'SolidWorks 2019',
    '' );
FILE_SCHEMA (( 'AUTOMOTIVE_DESIGN' ));
ENDSEC;

DATA;
#1 = AXIS2_PLACEMENT_3D ( 'NONE', #81, #222, #78 ) ;
#2 = LENGTH_MEASURE_WITH_UNIT ( LENGTH_MEASURE( 0.02539999999999999897 ), #115 );
#3 =( LENGTH_UNIT ( ) NAMED_UNIT ( * ) SI_UNIT ( $, .METRE. ) );
#4 = PRODUCT_DEFINITION_CONTEXT ( 'detailed design', #95, 'design' ) ;
#5 = LENGTH_MEASURE_WITH_UNIT ( LENGTH_MEASURE( 0.02539999999999999897 ), #70 );
#6 = EDGE_CURVE ( 'NONE', #215, #215, #111, .T. ) ;
#7 = ORIENTED_EDGE ( 'NONE', *, *, #41, .T. ) ;
#8 = FACE_OUTER_BOUND ( 'NONE', #193, .T. ) ;
#9 = CARTESIAN_POINT ( 'NONE',  ( 1.001000000000000556, 0.0000000000000000000, 0.0000000000000000000 ) ) ;
#10 = DIRECTION ( 'NONE',  ( 0.0000000000000000000, 0.0000000000000000000, -1.000000000000000000 ) ) ;
#11 = CYLINDRICAL_SURFACE ( 'NONE', #1, 0.01684999999999997958 ) ;
#12 = CARTESIAN_POINT ( 'NONE',  ( 0.9982912399082526367, 0.0000000000000000000, 0.0000000000000000000 ) ) ;
#13 = AXIS2_PLACEMENT_3D ( 'NONE', #66, #217, #157 ) ;
#14 = CARTESIAN_POINT ( 'NONE',  ( 0.9859999999999999876, 0.0000000000000000000, -0.02009999999999999634 ) ) ;
#15 = CARTESIAN_POINT ( 'NONE',  ( 1.110000000000000098, 0.0000000000000000000, 0.0000000000000000000 ) ) ;
#16 = FILL_AREA_STYLE_COLOUR ( '', #43 ) ;
#17 = STYLED_ITEM ( 'NONE', ( #177 ), #169 ) ;
#18 = EDGE_LOOP ( 'NONE', ( #126 ) ) ;
#19 =( NAMED_UNIT ( * ) PLANE_ANGLE_UNIT ( ) SI_UNIT ( $, .RADIAN. ) );
#20 = EDGE_CURVE ( 'NONE', #100, #100, #64, .T. ) ;
#21 = EDGE_LOOP ( 'NONE', ( #203 ) ) ;
#22 = EDGE_LOOP ( 'NONE', ( #107 ) ) ;
#23 = ADVANCED_BREP_SHAPE_REPRESENTATION ( '075-SPR', ( #169, #214 ), #87 ) ;
#24 = DIRECTION ( 'NONE',  ( 1.000000000000000000, -0.0000000000000000000, -0.0000000000000000000 ) ) ;
#25 = EDGE_LOOP ( 'NONE', ( #183 ) ) ;
#26 = ORIENTED_EDGE ( 'NONE', *, *, #20, .T. ) ;
#27 = PRODUCT ( '075-SPR', '075-SPR', '', ( #149 ) ) ;
#28 = DIRECTION ( 'NONE',  ( 0.0000000000000000000, 0.0000000000000000000, -1.000000000000000000 ) ) ;
#29 = TOROIDAL_SURFACE ( 'NONE', #186, 0.005099999999999999499, 0.01499999999999999771 ) ;
#30 = CARTESIAN_POINT ( 'NONE',  ( 1.108200000000000296, 0.0000000000000000000, 0.0000000000000000000 ) ) ;
#31 = DIRECTION ( 'NONE',  ( 1.000000000000000000, -0.0000000000000000000, -0.0000000000000000000 ) ) ;
#32 = DIMENSIONAL_EXPONENTS ( 1.000000000000000000, 0.0000000000000000000, 0.0000000000000000000, 0.0000000000000000000, 0.0000000000000000000, 0.0000000000000000000, 0.0000000000000000000 ) ;
#33 = FACE_OUTER_BOUND ( 'NONE', #135, .T. ) ;
#34 = ADVANCED_FACE ( 'NONE', ( #148 ), #96, .T. ) ;
#35 = AXIS2_PLACEMENT_3D ( 'NONE', #167, #79, #136 ) ;
#36 = CIRCLE ( 'NONE', #171, 0.01398230854637600405 ) ;
#37 = EDGE_CURVE ( 'NONE', #84, #84, #68, .T. ) ;
#38 = CIRCLE ( 'NONE', #179, 0.02010000000000000328 ) ;
#39 = ORIENTED_EDGE ( 'NONE', *, *, #116, .T. ) ;
#40 = DIRECTION ( 'NONE',  ( 1.000000000000000000, -0.0000000000000000000, -0.0000000000000000000 ) ) ;
#41 = EDGE_CURVE ( 'NONE', #89, #89, #134, .T. ) ;
#42 = SURFACE_SIDE_STYLE ('',( #44 ) ) ;
#43 = COLOUR_RGB ( '',0.7529411764705882248, 0.7529411764705882248, 0.7529411764705882248 ) ;
#44 = SURFACE_STYLE_FILL_AREA ( #45 ) ;
#45 = FILL_AREA_STYLE ('',( #16 ) ) ;
#46 = DIRECTION ( 'NONE',  ( 0.0000000000000000000, 0.0000000000000000000, -1.000000000000000000 ) ) ;
#47 = AXIS2_PLACEMENT_3D ( 'NONE', #210, #57, #28 ) ;
#48 = SURFACE_STYLE_USAGE ( .BOTH. , #42 ) ;
#49 = UNCERTAINTY_MEASURE_WITH_UNIT (LENGTH_MEASURE( 1.000000000000000082E-05 ), #82, 'distance_accuracy_value', 'NONE');
#50 =( CONVERSION_BASED_UNIT ( 'INCH', #5 ) LENGTH_UNIT ( ) NAMED_UNIT ( #32 ) );
#51 = VERTEX_POINT ( 'NONE', #128 ) ;
#52 = EDGE_CURVE ( 'NONE', #207, #207, #38, .T. ) ;
#53 = AXIS2_PLACEMENT_3D ( 'NONE', #63, #191, #153 ) ;
#54 =( NAMED_UNIT ( * ) SI_UNIT ( $, .STERADIAN. ) SOLID_ANGLE_UNIT ( ) );
#55 = ORIENTED_EDGE ( 'NONE', *, *, #37, .T. ) ;
#56 = CONICAL_SURFACE ( 'NONE', #108, 0.01398230854637600405, 1.047197551196640708 ) ;
#57 = DIRECTION ( 'NONE',  ( 1.000000000000000000, -0.0000000000000000000, -0.0000000000000000000 ) ) ;
#58 = FACE_OUTER_BOUND ( 'NONE', #21, .T. ) ;
#59 = ADVANCED_FACE ( 'NONE', ( #168, #172 ), #11, .T. ) ;
#60 = CARTESIAN_POINT ( 'NONE',  ( 1.001000000000000556, 0.0000000000000000000, 0.0000000000000000000 ) ) ;
#61 =( GEOMETRIC_REPRESENTATION_CONTEXT ( 3 ) GLOBAL_UNCERTAINTY_ASSIGNED_CONTEXT ( ( #120 ) ) GLOBAL_UNIT_ASSIGNED_CONTEXT ( ( #201, #19, #162 ) ) REPRESENTATION_CONTEXT ( 'NONE', 'WORKASPACE' ) );
#62 = DIRECTION ( 'NONE',  ( 0.0000000000000000000, 0.0000000000000000000, 1.000000000000000000 ) ) ;
#63 = CARTESIAN_POINT ( 'NONE',  ( 0.9859999999999999876, 0.0000000000000000000, 0.0000000000000000000 ) ) ;
#64 = CIRCLE ( 'NONE', #53, 0.02009999999999999634 ) ;
#65 = DIRECTION ( 'NONE',  ( -1.000000000000000000, 0.0000000000000000000, 0.0000000000000000000 ) ) ;
#66 = CARTESIAN_POINT ( 'NONE',  ( 0.9900631401376218665, 0.0000000000000000000, 0.0000000000000000000 ) ) ;
#67 =( NAMED_UNIT ( * ) SI_UNIT ( $, .STERADIAN. ) SOLID_ANGLE_UNIT ( ) );
#68 = CIRCLE ( 'NONE', #35, 0.01709999999999999368 ) ;
#69 = LENGTH_MEASURE_WITH_UNIT ( LENGTH_MEASURE( 0.02539999999999999897 ), #3 );
#70 =( LENGTH_UNIT ( ) NAMED_UNIT ( * ) SI_UNIT ( $, .METRE. ) );
#71 = CIRCLE ( 'NONE', #13, 0.01953921369819164658 ) ;
#72 = FILL_AREA_STYLE ('',( #206 ) ) ;
#73 = VERTEX_POINT ( 'NONE', #219 ) ;
#74 = AXIS2_PLACEMENT_3D ( 'NONE', #160, #31, #46 ) ;
#75 = MECHANICAL_DESIGN_GEOMETRIC_PRESENTATION_REPRESENTATION (  '', ( #209 ), #61 ) ;
#76 = CARTESIAN_POINT ( 'NONE',  ( 0.9859999999999999876, 0.0000000000000000000, 0.0000000000000000000 ) ) ;
#77 = EDGE_LOOP ( 'NONE', ( #90 ) ) ;
#78 = DIRECTION ( 'NONE',  ( 0.0000000000000000000, 0.0000000000000000000, -1.000000000000000000 ) ) ;
#79 = DIRECTION ( 'NONE',  ( 1.000000000000000000, -0.0000000000000000000, -0.0000000000000000000 ) ) ;
#80 = CONICAL_SURFACE ( 'NONE', #198, 0.01709999999999999368, 0.5235987755982618452 ) ;
#81 = CARTESIAN_POINT ( 'NONE',  ( 1.165499999999999980, 0.0000000000000000000, 0.0000000000000000000 ) ) ;
#82 =( CONVERSION_BASED_UNIT ( 'INCH', #2 ) LENGTH_UNIT ( ) NAMED_UNIT ( #124 ) );
#83 = FACE_OUTER_BOUND ( 'NONE', #22, .T. ) ;
#84 = VERTEX_POINT ( 'NONE', #165 ) ;
#85 = APPLICATION_CONTEXT ( 'automotive_design' ) ;
#86 =( NAMED_UNIT ( * ) PLANE_ANGLE_UNIT ( ) SI_UNIT ( $, .RADIAN. ) );
#87 =( GEOMETRIC_REPRESENTATION_CONTEXT ( 3 ) GLOBAL_UNCERTAINTY_ASSIGNED_CONTEXT ( ( #101 ) ) GLOBAL_UNIT_ASSIGNED_CONTEXT ( ( #50, #144, #54 ) ) REPRESENTATION_CONTEXT ( 'NONE', 'WORKASPACE' ) );
#88 = SURFACE_SIDE_STYLE ('',( #182 ) ) ;
#89 = VERTEX_POINT ( 'NONE', #103 ) ;
#90 = ORIENTED_EDGE ( 'NONE', *, *, #41, .F. ) ;
#91 = ORIENTED_EDGE ( 'NONE', *, *, #218, .F. ) ;
#92 = AXIS2_PLACEMENT_3D ( 'NONE', #170, #147, #62 ) ;
#93 = ORIENTED_EDGE ( 'NONE', *, *, #200, .T. ) ;
#94 = EDGE_LOOP ( 'NONE', ( #39 ) ) ;
#95 = APPLICATION_CONTEXT ( 'automotive_design' ) ;
#96 = PLANE ( 'NONE',  #92 ) ;
#97 = SHAPE_DEFINITION_REPRESENTATION ( #146, #23 ) ;
#98 = DIRECTION ( 'NONE',  ( 1.000000000000000000, -0.0000000000000000000, -0.0000000000000000000 ) ) ;
#99 = FACE_OUTER_BOUND ( 'NONE', #164, .T. ) ;
#100 = VERTEX_POINT ( 'NONE', #14 ) ;
#101 = UNCERTAINTY_MEASURE_WITH_UNIT (LENGTH_MEASURE( 1.000000000000000082E-05 ), #50, 'distance_accuracy_value', 'NONE');
#102 = EDGE_LOOP ( 'NONE', ( #93 ) ) ;
#103 = CARTESIAN_POINT ( 'NONE',  ( 1.107766987298107964, 0.0000000000000000000, -0.01684999999999997958 ) ) ;
#104 = EDGE_LOOP ( 'NONE', ( #7 ) ) ;
#105 = PRODUCT_RELATED_PRODUCT_CATEGORY ( 'part', '', ( #27 ) ) ;
#106 = CARTESIAN_POINT ( 'NONE',  ( 0.0000000000000000000, 0.0000000000000000000, 0.0000000000000000000 ) ) ;
#107 = ORIENTED_EDGE ( 'NONE', *, *, #218, .T. ) ;
#108 = AXIS2_PLACEMENT_3D ( 'NONE', #228, #139, #118 ) ;
#109 = FACE_OUTER_BOUND ( 'NONE', #112, .T. ) ;
#110 = FACE_OUTER_BOUND ( 'NONE', #145, .T. ) ;
#111 = CIRCLE ( 'NONE', #141, 0.01684999999999997958 ) ;
#112 = EDGE_LOOP ( 'NONE', ( #26 ) ) ;
#113 = TOROIDAL_SURFACE ( 'NONE', #208, 0.02684999999999998152, 0.01000000000000001235 ) ;
#114 = DIRECTION ( 'NONE',  ( 1.000000000000000000, -0.0000000000000000000, -0.0000000000000000000 ) ) ;
#115 =( LENGTH_UNIT ( ) NAMED_UNIT ( * ) SI_UNIT ( $, .METRE. ) );
#116 = EDGE_CURVE ( 'NONE', #73, #73, #123, .T. ) ;
#117 = CARTESIAN_POINT ( 'NONE',  ( 1.001000000000000556, 0.0000000000000000000, -0.01684999999999997958 ) ) ;
#118 = DIRECTION ( 'NONE',  ( 0.0000000000000000000, 0.0000000000000000000, 1.000000000000000000 ) ) ;
#119 = VERTEX_POINT ( 'NONE', #220 ) ;
#120 = UNCERTAINTY_MEASURE_WITH_UNIT (LENGTH_MEASURE( 1.000000000000000082E-05 ), #201, 'distance_accuracy_value', 'NONE');
#121 = APPLICATION_PROTOCOL_DEFINITION ( 'draft international standard', 'automotive_design', 1998, #85 ) ;
#122 = EDGE_LOOP ( 'NONE', ( #224 ) ) ;
#123 = CIRCLE ( 'NONE', #129, 0.01722385753453885976 ) ;
#124 = DIMENSIONAL_EXPONENTS ( 1.000000000000000000, 0.0000000000000000000, 0.0000000000000000000, 0.0000000000000000000, 0.0000000000000000000, 0.0000000000000000000, 0.0000000000000000000 ) ;
#125 = PRESENTATION_STYLE_ASSIGNMENT (( #161 ) ) ;
#126 = ORIENTED_EDGE ( 'NONE', *, *, #116, .F. ) ;
#127 = ADVANCED_FACE ( 'NONE', ( #154, #110 ), #113, .F. ) ;
#128 = CARTESIAN_POINT ( 'NONE',  ( 1.110000000000000098, 0.0000000000000000000, -0.01398230854637600405 ) ) ;
#129 = AXIS2_PLACEMENT_3D ( 'NONE', #227, #150, #132 ) ;
#130 = PRODUCT_DEFINITION ( 'UNKNOWN', '', #187, #4 ) ;
#131 = APPLICATION_PROTOCOL_DEFINITION ( 'draft international standard', 'automotive_design', 1998, #95 ) ;
#132 = DIRECTION ( 'NONE',  ( 0.0000000000000000000, 0.0000000000000000000, -1.000000000000000000 ) ) ;
#133 = CYLINDRICAL_SURFACE ( 'NONE', #74, 0.02009999999999999981 ) ;
#134 = CIRCLE ( 'NONE', #47, 0.01684999999999997958 ) ;
#135 = EDGE_LOOP ( 'NONE', ( #185 ) ) ;
#136 = DIRECTION ( 'NONE',  ( 0.0000000000000000000, 0.0000000000000000000, -1.000000000000000000 ) ) ;
#137 = DIRECTION ( 'NONE',  ( 1.000000000000000000, -0.0000000000000000000, -0.0000000000000000000 ) ) ;
#138 = FACE_BOUND ( 'NONE', #18, .T. ) ;
#139 = DIRECTION ( 'NONE',  ( -1.000000000000000000, 0.0000000000000000000, 0.0000000000000000000 ) ) ;
#140 = DIRECTION ( 'NONE',  ( 0.0000000000000000000, 0.0000000000000000000, -1.000000000000000000 ) ) ;
#141 = AXIS2_PLACEMENT_3D ( 'NONE', #9, #40, #10 ) ;
#142 = FACE_BOUND ( 'NONE', #104, .T. ) ;
#143 = MECHANICAL_DESIGN_GEOMETRIC_PRESENTATION_REPRESENTATION (  '', ( #17 ), #156 ) ;
#144 =( NAMED_UNIT ( * ) PLANE_ANGLE_UNIT ( ) SI_UNIT ( $, .RADIAN. ) );
#145 = EDGE_LOOP ( 'NONE', ( #205 ) ) ;
#146 = PRODUCT_DEFINITION_SHAPE ( 'NONE', 'NONE',  #130 ) ;
#147 = DIRECTION ( 'NONE',  ( -1.000000000000000000, 0.0000000000000000000, 0.0000000000000000000 ) ) ;
#148 = FACE_OUTER_BOUND ( 'NONE', #163, .T. ) ;
#149 = PRODUCT_CONTEXT ( 'NONE', #85, 'mechanical' ) ;
#150 = DIRECTION ( 'NONE',  ( 1.000000000000000000, -0.0000000000000000000, -0.0000000000000000000 ) ) ;
#151 = ADVANCED_FACE ( 'NONE', ( #109, #189 ), #29, .T. ) ;
#152 = COLOUR_RGB ( '',0.7529411764705882248, 0.7529411764705882248, 0.7529411764705882248 ) ;
#153 = DIRECTION ( 'NONE',  ( 0.0000000000000000000, 0.0000000000000000000, -1.000000000000000000 ) ) ;
#154 = FACE_OUTER_BOUND ( 'NONE', #94, .T. ) ;
#155 = ADVANCED_FACE ( 'NONE', ( #8, #58 ), #133, .T. ) ;
#156 =( GEOMETRIC_REPRESENTATION_CONTEXT ( 3 ) GLOBAL_UNCERTAINTY_ASSIGNED_CONTEXT ( ( #49 ) ) GLOBAL_UNIT_ASSIGNED_CONTEXT ( ( #82, #86, #67 ) ) REPRESENTATION_CONTEXT ( 'NONE', 'WORKASPACE' ) );
#157 = DIRECTION ( 'NONE',  ( 0.0000000000000000000, 0.0000000000000000000, -1.000000000000000000 ) ) ;
#158 = FACE_OUTER_BOUND ( 'NONE', #102, .T. ) ;
#159 = DIRECTION ( 'NONE',  ( 1.000000000000000000, -0.0000000000000000000, -0.0000000000000000000 ) ) ;
#160 = CARTESIAN_POINT ( 'NONE',  ( 1.165499999999999980, 0.0000000000000000000, 0.0000000000000000000 ) ) ;
#161 = SURFACE_STYLE_USAGE ( .BOTH. , #88 ) ;
#162 =( NAMED_UNIT ( * ) SI_UNIT ( $, .STERADIAN. ) SOLID_ANGLE_UNIT ( ) );
#163 = EDGE_LOOP ( 'NONE', ( #180 ) ) ;
#164 = EDGE_LOOP ( 'NONE', ( #55 ) ) ;
#165 = CARTESIAN_POINT ( 'NONE',  ( 1.108200000000000296, 0.0000000000000000000, -0.01709999999999999368 ) ) ;
#166 = CLOSED_SHELL ( 'NONE', ( #155, #151, #194, #127, #59, #188, #226, #34, #173 ) ) ;
#167 = CARTESIAN_POINT ( 'NONE',  ( 1.108200000000000296, 0.0000000000000000000, 0.0000000000000000000 ) ) ;
#168 = FACE_OUTER_BOUND ( 'NONE', #25, .T. ) ;
#169 = MANIFOLD_SOLID_BREP ( 'Revolve9', #166 ) ;
#170 = CARTESIAN_POINT ( 'NONE',  ( 2.667820306312757049E-19, 0.01650000000000000772, 0.0000000000000000000 ) ) ;
#171 = AXIS2_PLACEMENT_3D ( 'NONE', #15, #159, #140 ) ;
#172 = FACE_OUTER_BOUND ( 'NONE', #77, .T. ) ;
#173 = ADVANCED_FACE ( 'NONE', ( #158 ), #216, .F. ) ;
#174 = FACE_BOUND ( 'NONE', #122, .T. ) ;
#175 = DIRECTION ( 'NONE',  ( 0.0000000000000000000, 0.0000000000000000000, -1.000000000000000000 ) ) ;
#176 = PRESENTATION_LAYER_ASSIGNMENT (  '', '', ( #209 ) ) ;
#177 = PRESENTATION_STYLE_ASSIGNMENT (( #48 ) ) ;
#178 = CARTESIAN_POINT ( 'NONE',  ( 1.110000000000000098, 0.0000000000000000000, 0.0000000000000000000 ) ) ;
#179 = AXIS2_PLACEMENT_3D ( 'NONE', #195, #98, #212 ) ;
#180 = ORIENTED_EDGE ( 'NONE', *, *, #52, .F. ) ;
#181 = CARTESIAN_POINT ( 'NONE',  ( 0.0000000000000000000, 0.0000000000000000000, -0.02010000000000000328 ) ) ;
#182 = SURFACE_STYLE_FILL_AREA ( #72 ) ;
#183 = ORIENTED_EDGE ( 'NONE', *, *, #6, .T. ) ;
#184 = DIRECTION ( 'NONE',  ( 0.0000000000000000000, 0.0000000000000000000, 1.000000000000000000 ) ) ;
#185 = ORIENTED_EDGE ( 'NONE', *, *, #37, .F. ) ;
#186 = AXIS2_PLACEMENT_3D ( 'NONE', #76, #24, #223 ) ;
#187 = PRODUCT_DEFINITION_FORMATION_WITH_SPECIFIED_SOURCE ( 'ANY', '', #27, .NOT_KNOWN. ) ;
#188 = ADVANCED_FACE ( 'NONE', ( #142, #33 ), #80, .T. ) ;
#189 = FACE_OUTER_BOUND ( 'NONE', #211, .T. ) ;
#190 = DIRECTION ( 'NONE',  ( 1.000000000000000000, 0.0000000000000000000, 0.0000000000000000000 ) ) ;
#191 = DIRECTION ( 'NONE',  ( 1.000000000000000000, -0.0000000000000000000, -0.0000000000000000000 ) ) ;
#192 = AXIS2_PLACEMENT_3D ( 'NONE', #178, #199, #197 ) ;
#193 = EDGE_LOOP ( 'NONE', ( #225 ) ) ;
#194 = ADVANCED_FACE ( 'NONE', ( #83, #138 ), #221, .T. ) ;
#195 = CARTESIAN_POINT ( 'NONE',  ( 0.0000000000000000000, 0.0000000000000000000, 0.0000000000000000000 ) ) ;
#196 = AXIS2_PLACEMENT_3D ( 'NONE', #12, #65, #229 ) ;
#197 = DIRECTION ( 'NONE',  ( -0.0000000000000000000, 0.0000000000000000000, 1.000000000000000000 ) ) ;
#198 = AXIS2_PLACEMENT_3D ( 'NONE', #30, #114, #175 ) ;
#199 = DIRECTION ( 'NONE',  ( -1.000000000000000000, 0.0000000000000000000, -0.0000000000000000000 ) ) ;
#200 = EDGE_CURVE ( 'NONE', #51, #51, #36, .T. ) ;
#201 =( CONVERSION_BASED_UNIT ( 'INCH', #69 ) LENGTH_UNIT ( ) NAMED_UNIT ( #204 ) );
#202 = PRESENTATION_LAYER_ASSIGNMENT (  '', '', ( #17 ) ) ;
#203 = ORIENTED_EDGE ( 'NONE', *, *, #20, .F. ) ;
#204 = DIMENSIONAL_EXPONENTS ( 1.000000000000000000, 0.0000000000000000000, 0.0000000000000000000, 0.0000000000000000000, 0.0000000000000000000, 0.0000000000000000000, 0.0000000000000000000 ) ;
#205 = ORIENTED_EDGE ( 'NONE', *, *, #6, .F. ) ;
#206 = FILL_AREA_STYLE_COLOUR ( '', #152 ) ;
#207 = VERTEX_POINT ( 'NONE', #181 ) ;
#208 = AXIS2_PLACEMENT_3D ( 'NONE', #60, #137, #213 ) ;
#209 = STYLED_ITEM ( 'NONE', ( #125 ), #23 ) ;
#210 = CARTESIAN_POINT ( 'NONE',  ( 1.107766987298107964, 0.0000000000000000000, 0.0000000000000000000 ) ) ;
#211 = EDGE_LOOP ( 'NONE', ( #91 ) ) ;
#212 = DIRECTION ( 'NONE',  ( 0.0000000000000000000, 0.0000000000000000000, -1.000000000000000000 ) ) ;
#213 = DIRECTION ( 'NONE',  ( 0.0000000000000000000, 0.0000000000000000000, -1.000000000000000000 ) ) ;
#214 = AXIS2_PLACEMENT_3D ( 'NONE', #106, #184, #190 ) ;
#215 = VERTEX_POINT ( 'NONE', #117 ) ;
#216 = PLANE ( 'NONE',  #192 ) ;
#217 = DIRECTION ( 'NONE',  ( 1.000000000000000000, -0.0000000000000000000, -0.0000000000000000000 ) ) ;
#218 = EDGE_CURVE ( 'NONE', #119, #119, #71, .T. ) ;
#219 = CARTESIAN_POINT ( 'NONE',  ( 0.9982912399082526367, 0.0000000000000000000, -0.01722385753453885976 ) ) ;
#220 = CARTESIAN_POINT ( 'NONE',  ( 0.9900631401376218665, 0.0000000000000000000, -0.01953921369819164658 ) ) ;
#221 = CONICAL_SURFACE ( 'NONE', #196, 0.01722385753453885976, 0.2743029464864418787 ) ;
#222 = DIRECTION ( 'NONE',  ( 1.000000000000000000, -0.0000000000000000000, -0.0000000000000000000 ) ) ;
#223 = DIRECTION ( 'NONE',  ( 0.0000000000000000000, 0.0000000000000000000, -1.000000000000000000 ) ) ;
#224 = ORIENTED_EDGE ( 'NONE', *, *, #200, .F. ) ;
#225 = ORIENTED_EDGE ( 'NONE', *, *, #52, .T. ) ;
#226 = ADVANCED_FACE ( 'NONE', ( #99, #174 ), #56, .T. ) ;
#227 = CARTESIAN_POINT ( 'NONE',  ( 0.9982912399082526367, 0.0000000000000000000, 0.0000000000000000000 ) ) ;
#228 = CARTESIAN_POINT ( 'NONE',  ( 1.110000000000000098, 0.0000000000000000000, 0.0000000000000000000 ) ) ;
#229 = DIRECTION ( 'NONE',  ( 0.0000000000000000000, 0.0000000000000000000, 1.000000000000000000 ) ) ;
ENDSEC;
END-ISO-10303-21;
