ISO-10303-21;
HEADER;
FILE_DESCRIPTION (( 'STEP AP214' ),
    '1' );
FILE_NAME ('100-SD_250C.STEP',
    '2017-11-07T14:37:17',
    ( '' ),
    ( '' ),
    'SwSTEP 2.0',
    'SolidWorks 2017',
    '' );
FILE_SCHEMA (( 'AUTOMOTIVE_DESIGN' ));
ENDSEC;

DATA;
#1 = CARTESIAN_POINT ( 'NONE',  ( -0.07975398116885706900, 0.0000000000000000000, 0.0000000000000000000 ) ) ;
#2 = DIRECTION ( 'NONE',  ( 0.0000000000000000000, 0.0000000000000000000, 1.000000000000000000 ) ) ;
#3 = CARTESIAN_POINT ( 'NONE',  ( 0.9229200362557247200, 0.0000000000000000000, 0.03290000000000000600 ) ) ;
#4 = EDGE_CURVE ( 'NONE', #68, #68, #15, .T. ) ;
#5 = FACE_OUTER_BOUND ( 'NONE', #151, .T. ) ;
#6 = CARTESIAN_POINT ( 'NONE',  ( 0.2228849382363623500, 0.0000000000000000000, 0.0000000000000000000 ) ) ;
#7 = DIRECTION ( 'NONE',  ( -1.000000000000000000, -0.0000000000000000000, -0.0000000000000000000 ) ) ;
#8 = ADVANCED_FACE ( 'NONE', ( #191, #59 ), #30, .T. ) ;
#9 = EDGE_LOOP ( 'NONE', ( #14 ) ) ;
#10 = DIRECTION ( 'NONE',  ( -1.000000000000000000, -0.0000000000000000000, -0.0000000000000000000 ) ) ;
#11 = MECHANICAL_DESIGN_GEOMETRIC_PRESENTATION_REPRESENTATION (  '', ( #92 ), #185 ) ;
#12 = AXIS2_PLACEMENT_3D ( 'NONE', #130, #128, #171 ) ;
#13 = CLOSED_SHELL ( 'NONE', ( #111, #222, #129, #50, #182, #146, #8, #113, #134 ) ) ;
#14 = ORIENTED_EDGE ( 'NONE', *, *, #205, .T. ) ;
#15 = CIRCLE ( 'NONE', #225, 0.02619415039596549200 ) ;
#16 = FACE_OUTER_BOUND ( 'NONE', #106, .T. ) ;
#17 = ORIENTED_EDGE ( 'NONE', *, *, #46, .F. ) ;
#18 = AXIS2_PLACEMENT_3D ( 'NONE', #83, #90, #202 ) ;
#19 =( LENGTH_UNIT ( ) NAMED_UNIT ( * ) SI_UNIT ( $, .METRE. ) );
#20 = CARTESIAN_POINT ( 'NONE',  ( 0.2063303119939103000, 0.0000000000000000000, 0.02449999999999999700 ) ) ;
#21 = ORIENTED_EDGE ( 'NONE', *, *, #210, .F. ) ;
#22 = DIRECTION ( 'NONE',  ( -1.000000000000000000, -0.0000000000000000000, -0.0000000000000000000 ) ) ;
#23 = FACE_OUTER_BOUND ( 'NONE', #26, .T. ) ;
#24 =( NAMED_UNIT ( * ) PLANE_ANGLE_UNIT ( ) SI_UNIT ( $, .RADIAN. ) );
#25 = EDGE_LOOP ( 'NONE', ( #200 ) ) ;
#26 = EDGE_LOOP ( 'NONE', ( #204 ) ) ;
#27 = AXIS2_PLACEMENT_3D ( 'NONE', #138, #44, #174 ) ;
#28 =( CONVERSION_BASED_UNIT ( 'INCH', #108 ) LENGTH_UNIT ( ) NAMED_UNIT ( #60 ) );
#29 = DIRECTION ( 'NONE',  ( 0.0000000000000000000, 0.0000000000000000000, 1.000000000000000000 ) ) ;
#30 = CONICAL_SURFACE ( 'NONE', #172, 0.03120584960403450000, 0.4798663313175543000 ) ;
#31 = TOROIDAL_SURFACE ( 'NONE', #177, 0.01789999999999999600, 0.01500000000000000300 ) ;
#32 = DIRECTION ( 'NONE',  ( 0.0000000000000000000, 0.0000000000000000000, -1.000000000000000000 ) ) ;
#33 =( NAMED_UNIT ( * ) PLANE_ANGLE_UNIT ( ) SI_UNIT ( $, .RADIAN. ) );
#34 = ORIENTED_EDGE ( 'NONE', *, *, #46, .T. ) ;
#35 = AXIS2_PLACEMENT_3D ( 'NONE', #63, #203, #32 ) ;
#36 = ORIENTED_EDGE ( 'NONE', *, *, #4, .T. ) ;
#37 = AXIS2_PLACEMENT_3D ( 'NONE', #218, #195, #176 ) ;
#38 =( NAMED_UNIT ( * ) PLANE_ANGLE_UNIT ( ) SI_UNIT ( $, .RADIAN. ) );
#39 = DIRECTION ( 'NONE',  ( -1.000000000000000000, -0.0000000000000000000, -0.0000000000000000000 ) ) ;
#40 = EDGE_CURVE ( 'NONE', #105, #105, #152, .T. ) ;
#41 = DIRECTION ( 'NONE',  ( -1.000000000000000000, -0.0000000000000000000, -0.0000000000000000000 ) ) ;
#42 = ORIENTED_EDGE ( 'NONE', *, *, #56, .F. ) ;
#43 = PRODUCT_DEFINITION_CONTEXT ( 'detailed design', #167, 'design' ) ;
#44 = DIRECTION ( 'NONE',  ( -1.000000000000000000, -0.0000000000000000000, -0.0000000000000000000 ) ) ;
#45 = CARTESIAN_POINT ( 'NONE',  ( 0.0000000000000000000, 0.0000000000000000000, 0.02450000000000000100 ) ) ;
#46 = EDGE_CURVE ( 'NONE', #143, #143, #148, .T. ) ;
#47 = AXIS2_PLACEMENT_3D ( 'NONE', #221, #7, #29 ) ;
#48 = CARTESIAN_POINT ( 'NONE',  ( 0.2132552211135172500, 0.0000000000000000000, 0.0000000000000000000 ) ) ;
#49 = PLANE ( 'NONE',  #93 ) ;
#50 = ADVANCED_FACE ( 'NONE', ( #160 ), #82, .F. ) ;
#51 = CARTESIAN_POINT ( 'NONE',  ( 0.2298098473559692700, 0.0000000000000000000, 0.0000000000000000000 ) ) ;
#52 = PRODUCT_RELATED_PRODUCT_CATEGORY ( 'part', '', ( #58 ) ) ;
#53 = LENGTH_MEASURE_WITH_UNIT ( LENGTH_MEASURE( 0.02539999999999999900 ), #118 );
#54 = AXIS2_PLACEMENT_3D ( 'NONE', #116, #164, #88 ) ;
#55 = PRODUCT_DEFINITION_FORMATION_WITH_SPECIFIED_SOURCE ( 'ANY', '', #58, .NOT_KNOWN. ) ;
#56 = EDGE_CURVE ( 'NONE', #57, #57, #69, .T. ) ;
#57 = VERTEX_POINT ( 'NONE', #3 ) ;
#58 = PRODUCT ( '100-SD_250C', '100-SD_250C', '', ( #219 ) ) ;
#59 = FACE_OUTER_BOUND ( 'NONE', #216, .T. ) ;
#60 = DIMENSIONAL_EXPONENTS ( 1.000000000000000000, 0.0000000000000000000, 0.0000000000000000000, 0.0000000000000000000, 0.0000000000000000000, 0.0000000000000000000, 0.0000000000000000000 ) ;
#61 = EDGE_LOOP ( 'NONE', ( #71 ) ) ;
#62 = FACE_OUTER_BOUND ( 'NONE', #99, .T. ) ;
#63 = CARTESIAN_POINT ( 'NONE',  ( 0.0000000000000000000, 0.01935000000000000600, 0.0000000000000000000 ) ) ;
#64 = FACE_OUTER_BOUND ( 'NONE', #190, .T. ) ;
#65 =( NAMED_UNIT ( * ) SI_UNIT ( $, .STERADIAN. ) SOLID_ANGLE_UNIT ( ) );
#66 = ORIENTED_EDGE ( 'NONE', *, *, #40, .F. ) ;
#67 = AXIS2_PLACEMENT_3D ( 'NONE', #78, #41, #162 ) ;
#68 = VERTEX_POINT ( 'NONE', #77 ) ;
#69 = CIRCLE ( 'NONE', #145, 0.03290000000000000600 ) ;
#70 = TOROIDAL_SURFACE ( 'NONE', #194, 0.03950000000000000000, 0.01500000000000000300 ) ;
#71 = ORIENTED_EDGE ( 'NONE', *, *, #56, .T. ) ;
#72 = EDGE_LOOP ( 'NONE', ( #36 ) ) ;
#73 = DIRECTION ( 'NONE',  ( -1.000000000000000000, -0.0000000000000000000, -0.0000000000000000000 ) ) ;
#74 = CYLINDRICAL_SURFACE ( 'NONE', #166, 0.03289999999999999900 ) ;
#75 = FACE_OUTER_BOUND ( 'NONE', #61, .T. ) ;
#76 = CYLINDRICAL_SURFACE ( 'NONE', #27, 0.03289999999999999900 ) ;
#77 = CARTESIAN_POINT ( 'NONE',  ( 0.2132552211135172500, 0.0000000000000000000, 0.02619415039596549200 ) ) ;
#78 = CARTESIAN_POINT ( 'NONE',  ( 0.2228849382363623500, 0.0000000000000000000, 0.0000000000000000000 ) ) ;
#79 = EDGE_CURVE ( 'NONE', #228, #228, #94, .T. ) ;
#80 = CIRCLE ( 'NONE', #54, 0.03289999999999999900 ) ;
#81 = PRODUCT_DEFINITION_SHAPE ( 'NONE', 'NONE',  #132 ) ;
#82 = PLANE ( 'NONE',  #35 ) ;
#83 = CARTESIAN_POINT ( 'NONE',  ( 0.2298098473559692900, 0.0000000000000000000, 0.0000000000000000000 ) ) ;
#84 = EDGE_LOOP ( 'NONE', ( #127 ) ) ;
#85 = LENGTH_MEASURE_WITH_UNIT ( LENGTH_MEASURE( 0.02539999999999999900 ), #19 );
#86 = CARTESIAN_POINT ( 'NONE',  ( 0.8925799637442752800, 0.0000000000000000000, 0.03289999999999999900 ) ) ;
#87 = DIRECTION ( 'NONE',  ( 0.0000000000000000000, 0.0000000000000000000, 1.000000000000000000 ) ) ;
#88 = DIRECTION ( 'NONE',  ( 0.0000000000000000000, 0.0000000000000000000, 1.000000000000000000 ) ) ;
#89 = DIRECTION ( 'NONE',  ( -1.000000000000000000, -0.0000000000000000000, -0.0000000000000000000 ) ) ;
#90 = DIRECTION ( 'NONE',  ( -1.000000000000000000, -0.0000000000000000000, -0.0000000000000000000 ) ) ;
#91 = DIMENSIONAL_EXPONENTS ( 1.000000000000000000, 0.0000000000000000000, 0.0000000000000000000, 0.0000000000000000000, 0.0000000000000000000, 0.0000000000000000000, 0.0000000000000000000 ) ;
#92 = STYLED_ITEM ( 'NONE', ( #213 ), #180 ) ;
#93 = AXIS2_PLACEMENT_3D ( 'NONE', #199, #178, #223 ) ;
#94 = CIRCLE ( 'NONE', #47, 0.02450000000000000100 ) ;
#95 = SURFACE_SIDE_STYLE ('',( #158 ) ) ;
#96 =( LENGTH_UNIT ( ) NAMED_UNIT ( * ) SI_UNIT ( $, .METRE. ) );
#97 = ORIENTED_EDGE ( 'NONE', *, *, #205, .F. ) ;
#98 = DIRECTION ( 'NONE',  ( 0.0000000000000000000, 0.0000000000000000000, 1.000000000000000000 ) ) ;
#99 = EDGE_LOOP ( 'NONE', ( #66 ) ) ;
#100 = FACE_OUTER_BOUND ( 'NONE', #109, .T. ) ;
#101 = SURFACE_STYLE_USAGE ( .BOTH. , #227 ) ;
#102 = EDGE_LOOP ( 'NONE', ( #198 ) ) ;
#103 = AXIS2_PLACEMENT_3D ( 'NONE', #1, #140, #2 ) ;
#104 = DIRECTION ( 'NONE',  ( 0.0000000000000000000, 0.0000000000000000000, 1.000000000000000000 ) ) ;
#105 = VERTEX_POINT ( 'NONE', #86 ) ;
#106 = EDGE_LOOP ( 'NONE', ( #112 ) ) ;
#107 = COLOUR_RGB ( '',0.7529411764705882200, 0.7529411764705882200, 0.7529411764705882200 ) ;
#108 = LENGTH_MEASURE_WITH_UNIT ( LENGTH_MEASURE( 0.02539999999999999900 ), #96 );
#109 = EDGE_LOOP ( 'NONE', ( #170 ) ) ;
#110 = CARTESIAN_POINT ( 'NONE',  ( 0.9229200362557247200, 0.0000000000000000000, 0.0000000000000000000 ) ) ;
#111 = ADVANCED_FACE ( 'NONE', ( #62, #75 ), #115, .T. ) ;
#112 = ORIENTED_EDGE ( 'NONE', *, *, #40, .T. ) ;
#113 = ADVANCED_FACE ( 'NONE', ( #169, #207 ), #31, .T. ) ;
#114 = VERTEX_POINT ( 'NONE', #212 ) ;
#115 = TOROIDAL_SURFACE ( 'NONE', #12, 0.002737499999999800900, 0.03376250000000021600 ) ;
#116 = CARTESIAN_POINT ( 'NONE',  ( 1.189999999999999900, 0.0000000000000000000, 0.0000000000000000000 ) ) ;
#117 = STYLED_ITEM ( 'NONE', ( #163 ), #197 ) ;
#118 =( LENGTH_UNIT ( ) NAMED_UNIT ( * ) SI_UNIT ( $, .METRE. ) );
#119 = FACE_OUTER_BOUND ( 'NONE', #9, .T. ) ;
#120 = FILL_AREA_STYLE ('',( #214 ) ) ;
#121 = EDGE_LOOP ( 'NONE', ( #34 ) ) ;
#122 = CARTESIAN_POINT ( 'NONE',  ( 0.2298098473559692900, 0.0000000000000000000, 0.03289999999999999200 ) ) ;
#123 = APPLICATION_PROTOCOL_DEFINITION ( 'draft international standard', 'automotive_design', 1998, #167 ) ;
#124 = DIRECTION ( 'NONE',  ( 1.000000000000000000, 0.0000000000000000000, 0.0000000000000000000 ) ) ;
#125 = CIRCLE ( 'NONE', #229, 0.02449999999999999700 ) ;
#126 = COLOUR_RGB ( '',0.7529411764705882200, 0.7529411764705882200, 0.7529411764705882200 ) ;
#127 = ORIENTED_EDGE ( 'NONE', *, *, #220, .T. ) ;
#128 = DIRECTION ( 'NONE',  ( -1.000000000000000000, -0.0000000000000000000, -0.0000000000000000000 ) ) ;
#129 = ADVANCED_FACE ( 'NONE', ( #215 ), #49, .F. ) ;
#130 = CARTESIAN_POINT ( 'NONE',  ( 0.9077500000000000600, 0.0000000000000000000, 0.0000000000000000000 ) ) ;
#131 = DIRECTION ( 'NONE',  ( 0.0000000000000000000, 0.0000000000000000000, 1.000000000000000000 ) ) ;
#132 = PRODUCT_DEFINITION ( 'UNKNOWN', '', #55, #43 ) ;
#133 = MECHANICAL_DESIGN_GEOMETRIC_PRESENTATION_REPRESENTATION (  '', ( #117 ), #156 ) ;
#134 = ADVANCED_FACE ( 'NONE', ( #64, #16 ), #76, .T. ) ;
#135 = VERTEX_POINT ( 'NONE', #20 ) ;
#136 =( CONVERSION_BASED_UNIT ( 'INCH', #85 ) LENGTH_UNIT ( ) NAMED_UNIT ( #179 ) );
#137 = SURFACE_STYLE_USAGE ( .BOTH. , #95 ) ;
#138 = CARTESIAN_POINT ( 'NONE',  ( -0.07975398116885706900, 0.0000000000000000000, 0.0000000000000000000 ) ) ;
#139 = CARTESIAN_POINT ( 'NONE',  ( -0.07975398116885706900, 0.0000000000000000000, 0.0000000000000000000 ) ) ;
#140 = DIRECTION ( 'NONE',  ( -1.000000000000000000, -0.0000000000000000000, -0.0000000000000000000 ) ) ;
#141 = APPLICATION_PROTOCOL_DEFINITION ( 'draft international standard', 'automotive_design', 1998, #144 ) ;
#142 = DIRECTION ( 'NONE',  ( 0.0000000000000000000, 0.0000000000000000000, -1.000000000000000000 ) ) ;
#143 = VERTEX_POINT ( 'NONE', #122 ) ;
#144 = APPLICATION_CONTEXT ( 'automotive_design' ) ;
#145 = AXIS2_PLACEMENT_3D ( 'NONE', #110, #196, #131 ) ;
#146 = ADVANCED_FACE ( 'NONE', ( #100, #201 ), #70, .F. ) ;
#147 = DIRECTION ( 'NONE',  ( 0.0000000000000000000, 0.0000000000000000000, 1.000000000000000000 ) ) ;
#148 = CIRCLE ( 'NONE', #18, 0.03289999999999999200 ) ;
#149 = PRESENTATION_LAYER_ASSIGNMENT (  '', '', ( #117 ) ) ;
#150 = SHAPE_DEFINITION_REPRESENTATION ( #81, #180 ) ;
#151 = EDGE_LOOP ( 'NONE', ( #42 ) ) ;
#152 = CIRCLE ( 'NONE', #183, 0.03289999999999999900 ) ;
#153 = SURFACE_STYLE_FILL_AREA ( #189 ) ;
#154 = ORIENTED_EDGE ( 'NONE', *, *, #210, .T. ) ;
#155 =( NAMED_UNIT ( * ) SI_UNIT ( $, .STERADIAN. ) SOLID_ANGLE_UNIT ( ) );
#156 =( GEOMETRIC_REPRESENTATION_CONTEXT ( 3 ) GLOBAL_UNCERTAINTY_ASSIGNED_CONTEXT ( ( #226 ) ) GLOBAL_UNIT_ASSIGNED_CONTEXT ( ( #175, #24, #157 ) ) REPRESENTATION_CONTEXT ( 'NONE', 'WORKASPACE' ) );
#157 =( NAMED_UNIT ( * ) SI_UNIT ( $, .STERADIAN. ) SOLID_ANGLE_UNIT ( ) );
#158 = SURFACE_STYLE_FILL_AREA ( #120 ) ;
#159 = UNCERTAINTY_MEASURE_WITH_UNIT (LENGTH_MEASURE( 1.000000000000000100E-005 ), #136, 'distance_accuracy_value', 'NONE');
#160 = FACE_OUTER_BOUND ( 'NONE', #25, .T. ) ;
#161 = FACE_OUTER_BOUND ( 'NONE', #84, .T. ) ;
#162 = DIRECTION ( 'NONE',  ( 0.0000000000000000000, 0.0000000000000000000, 1.000000000000000000 ) ) ;
#163 = PRESENTATION_STYLE_ASSIGNMENT (( #101 ) ) ;
#164 = DIRECTION ( 'NONE',  ( -1.000000000000000000, -0.0000000000000000000, -0.0000000000000000000 ) ) ;
#165 = EDGE_LOOP ( 'NONE', ( #97 ) ) ;
#166 = AXIS2_PLACEMENT_3D ( 'NONE', #139, #73, #87 ) ;
#167 = APPLICATION_CONTEXT ( 'automotive_design' ) ;
#168 = DIRECTION ( 'NONE',  ( 0.0000000000000000000, 0.0000000000000000000, 1.000000000000000000 ) ) ;
#169 = FACE_OUTER_BOUND ( 'NONE', #209, .T. ) ;
#170 = ORIENTED_EDGE ( 'NONE', *, *, #220, .F. ) ;
#171 = DIRECTION ( 'NONE',  ( 0.0000000000000000000, 0.0000000000000000000, 1.000000000000000000 ) ) ;
#172 = AXIS2_PLACEMENT_3D ( 'NONE', #6, #124, #142 ) ;
#173 = CARTESIAN_POINT ( 'NONE',  ( 0.2063303119939103000, 0.0000000000000000000, 0.0000000000000000000 ) ) ;
#174 = DIRECTION ( 'NONE',  ( 0.0000000000000000000, 0.0000000000000000000, 1.000000000000000000 ) ) ;
#175 =( CONVERSION_BASED_UNIT ( 'INCH', #53 ) LENGTH_UNIT ( ) NAMED_UNIT ( #91 ) );
#176 = DIRECTION ( 'NONE',  ( 1.000000000000000000, 0.0000000000000000000, 0.0000000000000000000 ) ) ;
#177 = AXIS2_PLACEMENT_3D ( 'NONE', #51, #10, #147 ) ;
#178 = DIRECTION ( 'NONE',  ( -1.000000000000000000, 0.0000000000000000000, -0.0000000000000000000 ) ) ;
#179 = DIMENSIONAL_EXPONENTS ( 1.000000000000000000, 0.0000000000000000000, 0.0000000000000000000, 0.0000000000000000000, 0.0000000000000000000, 0.0000000000000000000, 0.0000000000000000000 ) ;
#180 = ADVANCED_BREP_SHAPE_REPRESENTATION ( '100-SD_250C', ( #197, #37 ), #187 ) ;
#181 = CARTESIAN_POINT ( 'NONE',  ( 0.8925799637442752800, 0.0000000000000000000, 0.0000000000000000000 ) ) ;
#182 = ADVANCED_FACE ( 'NONE', ( #23, #161 ), #206, .T. ) ;
#183 = AXIS2_PLACEMENT_3D ( 'NONE', #181, #224, #168 ) ;
#184 = VERTEX_POINT ( 'NONE', #192 ) ;
#185 =( GEOMETRIC_REPRESENTATION_CONTEXT ( 3 ) GLOBAL_UNCERTAINTY_ASSIGNED_CONTEXT ( ( #186 ) ) GLOBAL_UNIT_ASSIGNED_CONTEXT ( ( #28, #33, #65 ) ) REPRESENTATION_CONTEXT ( 'NONE', 'WORKASPACE' ) );
#186 = UNCERTAINTY_MEASURE_WITH_UNIT (LENGTH_MEASURE( 1.000000000000000100E-005 ), #28, 'distance_accuracy_value', 'NONE');
#187 =( GEOMETRIC_REPRESENTATION_CONTEXT ( 3 ) GLOBAL_UNCERTAINTY_ASSIGNED_CONTEXT ( ( #159 ) ) GLOBAL_UNIT_ASSIGNED_CONTEXT ( ( #136, #38, #155 ) ) REPRESENTATION_CONTEXT ( 'NONE', 'WORKASPACE' ) );
#188 = CARTESIAN_POINT ( 'NONE',  ( 0.2063303119939103000, 0.0000000000000000000, 0.0000000000000000000 ) ) ;
#189 = FILL_AREA_STYLE ('',( #217 ) ) ;
#190 = EDGE_LOOP ( 'NONE', ( #17 ) ) ;
#191 = FACE_BOUND ( 'NONE', #102, .T. ) ;
#192 = CARTESIAN_POINT ( 'NONE',  ( 0.2228849382363623500, 0.0000000000000000000, 0.03120584960403450000 ) ) ;
#193 = CIRCLE ( 'NONE', #67, 0.03120584960403450000 ) ;
#194 = AXIS2_PLACEMENT_3D ( 'NONE', #173, #39, #98 ) ;
#195 = DIRECTION ( 'NONE',  ( 0.0000000000000000000, 0.0000000000000000000, 1.000000000000000000 ) ) ;
#196 = DIRECTION ( 'NONE',  ( -1.000000000000000000, -0.0000000000000000000, -0.0000000000000000000 ) ) ;
#197 = MANIFOLD_SOLID_BREP ( 'Revolve2', #13 ) ;
#198 = ORIENTED_EDGE ( 'NONE', *, *, #4, .F. ) ;
#199 = CARTESIAN_POINT ( 'NONE',  ( 1.189999999999999900, 0.03289999999999999900, 0.0000000000000000000 ) ) ;
#200 = ORIENTED_EDGE ( 'NONE', *, *, #79, .T. ) ;
#201 = FACE_OUTER_BOUND ( 'NONE', #72, .T. ) ;
#202 = DIRECTION ( 'NONE',  ( 0.0000000000000000000, 0.0000000000000000000, 1.000000000000000000 ) ) ;
#203 = DIRECTION ( 'NONE',  ( 1.000000000000000000, 0.0000000000000000000, 0.0000000000000000000 ) ) ;
#204 = ORIENTED_EDGE ( 'NONE', *, *, #79, .F. ) ;
#205 = EDGE_CURVE ( 'NONE', #114, #114, #80, .T. ) ;
#206 = CYLINDRICAL_SURFACE ( 'NONE', #103, 0.02449999999999999700 ) ;
#207 = FACE_OUTER_BOUND ( 'NONE', #121, .T. ) ;
#208 = PRESENTATION_LAYER_ASSIGNMENT (  '', '', ( #92 ) ) ;
#209 = EDGE_LOOP ( 'NONE', ( #21 ) ) ;
#210 = EDGE_CURVE ( 'NONE', #184, #184, #193, .T. ) ;
#211 = DIRECTION ( 'NONE',  ( 0.0000000000000000000, 0.0000000000000000000, 1.000000000000000000 ) ) ;
#212 = CARTESIAN_POINT ( 'NONE',  ( 1.189999999999999900, 0.0000000000000000000, 0.03289999999999999900 ) ) ;
#213 = PRESENTATION_STYLE_ASSIGNMENT (( #137 ) ) ;
#214 = FILL_AREA_STYLE_COLOUR ( '', #126 ) ;
#215 = FACE_OUTER_BOUND ( 'NONE', #165, .T. ) ;
#216 = EDGE_LOOP ( 'NONE', ( #154 ) ) ;
#217 = FILL_AREA_STYLE_COLOUR ( '', #107 ) ;
#218 = CARTESIAN_POINT ( 'NONE',  ( 0.0000000000000000000, 0.0000000000000000000, 0.0000000000000000000 ) ) ;
#219 = PRODUCT_CONTEXT ( 'NONE', #144, 'mechanical' ) ;
#220 = EDGE_CURVE ( 'NONE', #135, #135, #125, .T. ) ;
#221 = CARTESIAN_POINT ( 'NONE',  ( 0.0000000000000000000, 0.0000000000000000000, 0.0000000000000000000 ) ) ;
#222 = ADVANCED_FACE ( 'NONE', ( #5, #119 ), #74, .T. ) ;
#223 = DIRECTION ( 'NONE',  ( -0.0000000000000000000, 0.0000000000000000000, 1.000000000000000000 ) ) ;
#224 = DIRECTION ( 'NONE',  ( -1.000000000000000000, -0.0000000000000000000, -0.0000000000000000000 ) ) ;
#225 = AXIS2_PLACEMENT_3D ( 'NONE', #48, #89, #104 ) ;
#226 = UNCERTAINTY_MEASURE_WITH_UNIT (LENGTH_MEASURE( 1.000000000000000100E-005 ), #175, 'distance_accuracy_value', 'NONE');
#227 = SURFACE_SIDE_STYLE ('',( #153 ) ) ;
#228 = VERTEX_POINT ( 'NONE', #45 ) ;
#229 = AXIS2_PLACEMENT_3D ( 'NONE', #188, #22, #211 ) ;
ENDSEC;
END-ISO-10303-21;
