ISO-10303-21;
HEADER;
FILE_DESCRIPTION (( 'STEP AP214' ),
    '1' );
FILE_NAME ('100-SDS250M1.STEP',
    '2020-09-28T13:33:25',
    ( '' ),
    ( '' ),
    'SwSTEP 2.0',
    'SolidWorks 2019',
    '' );
FILE_SCHEMA (( 'AUTOMOTIVE_DESIGN' ));
ENDSEC;

DATA;
#1 = CARTESIAN_POINT ( 'NONE',  ( 0.07075000000000000733, 0.0000000000000000000, 0.0000000000000000000 ) ) ;
#2 = APPLICATION_CONTEXT ( 'automotive_design' ) ;
#3 = ORIENTED_EDGE ( 'NONE', *, *, #69, .F. ) ;
#4 = DIRECTION ( 'NONE',  ( -1.000000000000000000, -0.0000000000000000000, -0.0000000000000000000 ) ) ;
#5 = ADVANCED_FACE ( 'NONE', ( #145 ), #67, .F. ) ;
#6 = ORIENTED_EDGE ( 'NONE', *, *, #244, .T. ) ;
#7 = CONICAL_SURFACE ( 'NONE', #155, 0.03300000000000000155, 0.7853981633974426169 ) ;
#8 = CARTESIAN_POINT ( 'NONE',  ( -0.04482965506652238086, 0.0000000000000000000, 0.0000000000000000000 ) ) ;
#9 = PRODUCT_DEFINITION_FORMATION_WITH_SPECIFIED_SOURCE ( 'ANY', '', #124, .NOT_KNOWN. ) ;
#10 = ORIENTED_EDGE ( 'NONE', *, *, #85, .T. ) ;
#11 = FACE_OUTER_BOUND ( 'NONE', #239, .T. ) ;
#12 = VERTEX_POINT ( 'NONE', #58 ) ;
#13 = FACE_OUTER_BOUND ( 'NONE', #96, .T. ) ;
#14 = AXIS2_PLACEMENT_3D ( 'NONE', #64, #203, #197 ) ;
#15 = ORIENTED_EDGE ( 'NONE', *, *, #225, .F. ) ;
#16 = DIRECTION ( 'NONE',  ( 0.0000000000000000000, 0.0000000000000000000, 1.000000000000000000 ) ) ;
#17 = PRESENTATION_STYLE_ASSIGNMENT (( #140 ) ) ;
#18 = UNCERTAINTY_MEASURE_WITH_UNIT (LENGTH_MEASURE( 1.000000000000000082E-05 ), #260, 'distance_accuracy_value', 'NONE');
#19 = COLOUR_RGB ( '',0.7529411764705882248, 0.7529411764705882248, 0.7529411764705882248 ) ;
#20 = DIRECTION ( 'NONE',  ( 0.0000000000000000000, 0.0000000000000000000, 1.000000000000000000 ) ) ;
#21 = ORIENTED_EDGE ( 'NONE', *, *, #162, .F. ) ;
#22 = FACE_OUTER_BOUND ( 'NONE', #135, .T. ) ;
#23 = DIRECTION ( 'NONE',  ( -1.000000000000000000, -0.0000000000000000000, -0.0000000000000000000 ) ) ;
#24 = DIRECTION ( 'NONE',  ( 0.0000000000000000000, 0.0000000000000000000, 1.000000000000000000 ) ) ;
#25 = FACE_OUTER_BOUND ( 'NONE', #144, .T. ) ;
#26 = AXIS2_PLACEMENT_3D ( 'NONE', #151, #36, #118 ) ;
#27 = ADVANCED_FACE ( 'NONE', ( #89, #42 ), #102, .T. ) ;
#28 = UNCERTAINTY_MEASURE_WITH_UNIT (LENGTH_MEASURE( 1.000000000000000082E-05 ), #139, 'distance_accuracy_value', 'NONE');
#29 = AXIS2_PLACEMENT_3D ( 'NONE', #181, #220, #226 ) ;
#30 = EDGE_LOOP ( 'NONE', ( #21 ) ) ;
#31 =( CONVERSION_BASED_UNIT ( 'INCH', #136 ) LENGTH_UNIT ( ) NAMED_UNIT ( #74 ) );
#32 =( NAMED_UNIT ( * ) SI_UNIT ( $, .STERADIAN. ) SOLID_ANGLE_UNIT ( ) );
#33 = ADVANCED_FACE ( 'NONE', ( #178, #25 ), #247, .T. ) ;
#34 = CARTESIAN_POINT ( 'NONE',  ( 0.9559511655051865509, 0.0000000000000000000, -0.03300000000000000155 ) ) ;
#35 = CIRCLE ( 'NONE', #211, 0.03300000000000000155 ) ;
#36 = DIRECTION ( 'NONE',  ( -1.000000000000000000, 0.0000000000000000000, -0.0000000000000000000 ) ) ;
#37 =( GEOMETRIC_REPRESENTATION_CONTEXT ( 3 ) GLOBAL_UNCERTAINTY_ASSIGNED_CONTEXT ( ( #28 ) ) GLOBAL_UNIT_ASSIGNED_CONTEXT ( ( #139, #232, #253 ) ) REPRESENTATION_CONTEXT ( 'NONE', 'WORKASPACE' ) );
#38 = CARTESIAN_POINT ( 'NONE',  ( -0.04482965506652238086, 0.0000000000000000000, 0.0000000000000000000 ) ) ;
#39 = AXIS2_PLACEMENT_3D ( 'NONE', #52, #95, #254 ) ;
#40 = ORIENTED_EDGE ( 'NONE', *, *, #143, .T. ) ;
#41 = COLOUR_RGB ( '',0.7529411764705882248, 0.7529411764705882248, 0.7529411764705882248 ) ;
#42 = FACE_OUTER_BOUND ( 'NONE', #175, .T. ) ;
#43 = AXIS2_PLACEMENT_3D ( 'NONE', #104, #45, #222 ) ;
#44 = CARTESIAN_POINT ( 'NONE',  ( 0.2844999999999999751, 0.0000000000000000000, 0.0000000000000000000 ) ) ;
#45 = DIRECTION ( 'NONE',  ( -1.000000000000000000, -0.0000000000000000000, -0.0000000000000000000 ) ) ;
#46 = AXIS2_PLACEMENT_3D ( 'NONE', #38, #230, #20 ) ;
#47 = DIRECTION ( 'NONE',  ( 0.0000000000000000000, 0.0000000000000000000, 1.000000000000000000 ) ) ;
#48 = ADVANCED_FACE ( 'NONE', ( #148, #22 ), #59, .T. ) ;
#49 = FACE_BOUND ( 'NONE', #81, .T. ) ;
#50 = AXIS2_PLACEMENT_3D ( 'NONE', #163, #224, #129 ) ;
#51 =( GEOMETRIC_REPRESENTATION_CONTEXT ( 3 ) GLOBAL_UNCERTAINTY_ASSIGNED_CONTEXT ( ( #18 ) ) GLOBAL_UNIT_ASSIGNED_CONTEXT ( ( #260, #80, #190 ) ) REPRESENTATION_CONTEXT ( 'NONE', 'WORKASPACE' ) );
#52 = CARTESIAN_POINT ( 'NONE',  ( 0.07075000000000000733, 0.0000000000000000000, 0.0000000000000000000 ) ) ;
#53 = ORIENTED_EDGE ( 'NONE', *, *, #177, .F. ) ;
#54 = DIRECTION ( 'NONE',  ( -1.000000000000000000, -0.0000000000000000000, -0.0000000000000000000 ) ) ;
#55 = ADVANCED_FACE ( 'NONE', ( #49, #66 ), #7, .T. ) ;
#56 = ORIENTED_EDGE ( 'NONE', *, *, #162, .T. ) ;
#57 = FACE_OUTER_BOUND ( 'NONE', #110, .T. ) ;
#58 = CARTESIAN_POINT ( 'NONE',  ( 0.9899999999999997691, 0.0000000000000000000, 0.01970000000000004040 ) ) ;
#59 = TOROIDAL_SURFACE ( 'NONE', #156, 0.007583073558414942829, 0.02541692644158504225 ) ;
#60 = DIRECTION ( 'NONE',  ( -1.000000000000000000, -0.0000000000000000000, -0.0000000000000000000 ) ) ;
#61 = ORIENTED_EDGE ( 'NONE', *, *, #212, .F. ) ;
#62 = AXIS2_PLACEMENT_3D ( 'NONE', #107, #4, #183 ) ;
#63 = PRODUCT_CONTEXT ( 'NONE', #84, 'mechanical' ) ;
#64 = CARTESIAN_POINT ( 'NONE',  ( -0.04482965506652238086, 0.0000000000000000000, 0.0000000000000000000 ) ) ;
#65 = PRODUCT_RELATED_PRODUCT_CATEGORY ( 'part', '', ( #124 ) ) ;
#66 = FACE_OUTER_BOUND ( 'NONE', #215, .T. ) ;
#67 = PLANE ( 'NONE',  #29 ) ;
#68 = CARTESIAN_POINT ( 'NONE',  ( 1.304999999999999938, 0.0000000000000000000, 0.0000000000000000000 ) ) ;
#69 = EDGE_CURVE ( 'NONE', #12, #12, #195, .T. ) ;
#70 = DIRECTION ( 'NONE',  ( -1.000000000000000000, -0.0000000000000000000, -0.0000000000000000000 ) ) ;
#71 = FILL_AREA_STYLE_COLOUR ( '', #41 ) ;
#72 = VERTEX_POINT ( 'NONE', #101 ) ;
#73 = AXIS2_PLACEMENT_3D ( 'NONE', #248, #199, #160 ) ;
#74 = DIMENSIONAL_EXPONENTS ( 1.000000000000000000, 0.0000000000000000000, 0.0000000000000000000, 0.0000000000000000000, 0.0000000000000000000, 0.0000000000000000000, 0.0000000000000000000 ) ;
#75 = SURFACE_STYLE_USAGE ( .BOTH. , #116 ) ;
#76 = VERTEX_POINT ( 'NONE', #210 ) ;
#77 = ORIENTED_EDGE ( 'NONE', *, *, #133, .T. ) ;
#78 = EDGE_LOOP ( 'NONE', ( #142 ) ) ;
#79 = FACE_OUTER_BOUND ( 'NONE', #250, .T. ) ;
#80 =( NAMED_UNIT ( * ) PLANE_ANGLE_UNIT ( ) SI_UNIT ( $, .RADIAN. ) );
#81 = EDGE_LOOP ( 'NONE', ( #92 ) ) ;
#82 = AXIS2_PLACEMENT_3D ( 'NONE', #219, #240, #243 ) ;
#83 = AXIS2_PLACEMENT_3D ( 'NONE', #263, #54, #16 ) ;
#84 = APPLICATION_CONTEXT ( 'automotive_design' ) ;
#85 = EDGE_CURVE ( 'NONE', #168, #168, #186, .T. ) ;
#86 = DIRECTION ( 'NONE',  ( 0.0000000000000000000, 0.0000000000000000000, -1.000000000000000000 ) ) ;
#87 = DIRECTION ( 'NONE',  ( 1.000000000000000000, -0.0000000000000000000, -0.0000000000000000000 ) ) ;
#88 = DIRECTION ( 'NONE',  ( 1.000000000000000000, 0.0000000000000000000, 0.0000000000000000000 ) ) ;
#89 = FACE_OUTER_BOUND ( 'NONE', #158, .T. ) ;
#90 = EDGE_LOOP ( 'NONE', ( #77 ) ) ;
#91 = AXIS2_PLACEMENT_3D ( 'NONE', #269, #164, #125 ) ;
#92 = ORIENTED_EDGE ( 'NONE', *, *, #143, .F. ) ;
#93 = PRESENTATION_STYLE_ASSIGNMENT (( #75 ) ) ;
#94 =( NAMED_UNIT ( * ) PLANE_ANGLE_UNIT ( ) SI_UNIT ( $, .RADIAN. ) );
#95 = DIRECTION ( 'NONE',  ( -1.000000000000000000, -0.0000000000000000000, -0.0000000000000000000 ) ) ;
#96 = EDGE_LOOP ( 'NONE', ( #53 ) ) ;
#97 = CARTESIAN_POINT ( 'NONE',  ( 0.9899999999999997691, 0.0000000000000000000, 0.0000000000000000000 ) ) ;
#98 = CIRCLE ( 'NONE', #50, 0.03300000000000000155 ) ;
#99 = SURFACE_SIDE_STYLE ('',( #123 ) ) ;
#100 = ORIENTED_EDGE ( 'NONE', *, *, #109, .F. ) ;
#101 = CARTESIAN_POINT ( 'NONE',  ( 1.304999999999999938, 0.0000000000000000000, 0.01469999999999999779 ) ) ;
#102 = TOROIDAL_SURFACE ( 'NONE', #91, 0.01469999999999999779, 0.005000000000000041737 ) ;
#103 = AXIS2_PLACEMENT_3D ( 'NONE', #44, #108, #146 ) ;
#104 = CARTESIAN_POINT ( 'NONE',  ( 0.9899999999999997691, 0.0000000000000000000, 0.0000000000000000000 ) ) ;
#105 = DIRECTION ( 'NONE',  ( 0.0000000000000000000, 0.0000000000000000000, 1.000000000000000000 ) ) ;
#106 = EDGE_LOOP ( 'NONE', ( #10 ) ) ;
#107 = CARTESIAN_POINT ( 'NONE',  ( 0.07000000000000000666, 0.0000000000000000000, 0.0000000000000000000 ) ) ;
#108 = DIRECTION ( 'NONE',  ( -1.000000000000000000, -0.0000000000000000000, -0.0000000000000000000 ) ) ;
#109 = EDGE_CURVE ( 'NONE', #113, #113, #35, .T. ) ;
#110 = EDGE_LOOP ( 'NONE', ( #40 ) ) ;
#111 = PRODUCT_DEFINITION_CONTEXT ( 'detailed design', #2, 'design' ) ;
#112 = DIRECTION ( 'NONE',  ( 0.0000000000000000000, 0.0000000000000000000, 1.000000000000000000 ) ) ;
#113 = VERTEX_POINT ( 'NONE', #257 ) ;
#114 = PLANE ( 'NONE',  #26 ) ;
#115 = CARTESIAN_POINT ( 'NONE',  ( 0.07075000000000000733, 0.0000000000000000000, 0.03300000000000000155 ) ) ;
#116 = SURFACE_SIDE_STYLE ('',( #233 ) ) ;
#117 = VERTEX_POINT ( 'NONE', #34 ) ;
#118 = DIRECTION ( 'NONE',  ( -0.0000000000000000000, 0.0000000000000000000, 1.000000000000000000 ) ) ;
#119 =( LENGTH_UNIT ( ) NAMED_UNIT ( * ) SI_UNIT ( $, .METRE. ) );
#120 = STYLED_ITEM ( 'NONE', ( #93 ), #223 ) ;
#121 = CIRCLE ( 'NONE', #73, 0.03224999999999999395 ) ;
#122 = FACE_OUTER_BOUND ( 'NONE', #78, .T. ) ;
#123 = SURFACE_STYLE_FILL_AREA ( #193 ) ;
#124 = PRODUCT ( '100-SDS250M1', '100-SDS250M1', '', ( #63 ) ) ;
#125 = DIRECTION ( 'NONE',  ( 0.0000000000000000000, 0.0000000000000000000, 1.000000000000000000 ) ) ;
#126 = DIRECTION ( 'NONE',  ( -1.000000000000000000, -0.0000000000000000000, -0.0000000000000000000 ) ) ;
#127 = DIRECTION ( 'NONE',  ( -1.000000000000000000, -0.0000000000000000000, -0.0000000000000000000 ) ) ;
#128 = PRODUCT_DEFINITION ( 'UNKNOWN', '', #9, #111 ) ;
#129 = DIRECTION ( 'NONE',  ( 0.0000000000000000000, 0.0000000000000000000, -1.000000000000000000 ) ) ;
#130 = CARTESIAN_POINT ( 'NONE',  ( 0.2972426449373746782, 0.0000000000000000000, 0.0000000000000000000 ) ) ;
#131 = MECHANICAL_DESIGN_GEOMETRIC_PRESENTATION_REPRESENTATION (  '', ( #120 ), #37 ) ;
#132 = ADVANCED_BREP_SHAPE_REPRESENTATION ( '100-SDS250M1', ( #223, #82 ), #51 ) ;
#133 = EDGE_CURVE ( 'NONE', #237, #237, #121, .T. ) ;
#134 = AXIS2_PLACEMENT_3D ( 'NONE', #149, #60, #112 ) ;
#135 = EDGE_LOOP ( 'NONE', ( #255 ) ) ;
#136 = LENGTH_MEASURE_WITH_UNIT ( LENGTH_MEASURE( 0.02539999999999999897 ), #138 );
#137 = DIRECTION ( 'NONE',  ( 0.0000000000000000000, 0.0000000000000000000, 1.000000000000000000 ) ) ;
#138 =( LENGTH_UNIT ( ) NAMED_UNIT ( * ) SI_UNIT ( $, .METRE. ) );
#139 =( CONVERSION_BASED_UNIT ( 'INCH', #209 ) LENGTH_UNIT ( ) NAMED_UNIT ( #261 ) );
#140 = SURFACE_STYLE_USAGE ( .BOTH. , #99 ) ;
#141 = CYLINDRICAL_SURFACE ( 'NONE', #46, 0.01970000000000001958 ) ;
#142 = ORIENTED_EDGE ( 'NONE', *, *, #69, .T. ) ;
#143 = EDGE_CURVE ( 'NONE', #213, #213, #218, .T. ) ;
#144 = EDGE_LOOP ( 'NONE', ( #214 ) ) ;
#145 = FACE_OUTER_BOUND ( 'NONE', #90, .T. ) ;
#146 = DIRECTION ( 'NONE',  ( 0.0000000000000000000, 0.0000000000000000000, 1.000000000000000000 ) ) ;
#147 = CARTESIAN_POINT ( 'NONE',  ( 0.9559511655051865509, 0.0000000000000000000, 0.0000000000000000000 ) ) ;
#148 = FACE_OUTER_BOUND ( 'NONE', #238, .T. ) ;
#149 = CARTESIAN_POINT ( 'NONE',  ( -0.04482965506652238086, 0.0000000000000000000, 0.0000000000000000000 ) ) ;
#150 = ORIENTED_EDGE ( 'NONE', *, *, #85, .F. ) ;
#151 = CARTESIAN_POINT ( 'NONE',  ( 1.304999999999999938, 0.01469999999999999779, 0.0000000000000000000 ) ) ;
#152 = CARTESIAN_POINT ( 'NONE',  ( 1.299999999999999822, 0.0000000000000000000, 0.01969999999999999876 ) ) ;
#153 = FACE_OUTER_BOUND ( 'NONE', #30, .T. ) ;
#154 = APPLICATION_PROTOCOL_DEFINITION ( 'draft international standard', 'automotive_design', 1998, #84 ) ;
#155 = AXIS2_PLACEMENT_3D ( 'NONE', #1, #88, #246 ) ;
#156 = AXIS2_PLACEMENT_3D ( 'NONE', #147, #87, #86 ) ;
#157 = PRESENTATION_LAYER_ASSIGNMENT (  '', '', ( #180 ) ) ;
#158 = EDGE_LOOP ( 'NONE', ( #15 ) ) ;
#159 = AXIS2_PLACEMENT_3D ( 'NONE', #68, #23, #105 ) ;
#160 = DIRECTION ( 'NONE',  ( 0.0000000000000000000, 0.0000000000000000000, 1.000000000000000000 ) ) ;
#161 = CARTESIAN_POINT ( 'NONE',  ( 0.2717573550626253276, 0.0000000000000000000, 0.0000000000000000000 ) ) ;
#162 = EDGE_CURVE ( 'NONE', #117, #117, #98, .T. ) ;
#163 = CARTESIAN_POINT ( 'NONE',  ( 0.9559511655051865509, 0.0000000000000000000, 0.0000000000000000000 ) ) ;
#164 = DIRECTION ( 'NONE',  ( -1.000000000000000000, -0.0000000000000000000, -0.0000000000000000000 ) ) ;
#165 = CARTESIAN_POINT ( 'NONE',  ( 1.299999999999999822, 0.0000000000000000000, 0.0000000000000000000 ) ) ;
#166 = ADVANCED_FACE ( 'NONE', ( #245, #200 ), #249, .T. ) ;
#167 = DIRECTION ( 'NONE',  ( -1.000000000000000000, -0.0000000000000000000, -0.0000000000000000000 ) ) ;
#168 = VERTEX_POINT ( 'NONE', #173 ) ;
#169 = FILL_AREA_STYLE ('',( #71 ) ) ;
#170 = FILL_AREA_STYLE_COLOUR ( '', #19 ) ;
#171 = DIMENSIONAL_EXPONENTS ( 1.000000000000000000, 0.0000000000000000000, 0.0000000000000000000, 0.0000000000000000000, 0.0000000000000000000, 0.0000000000000000000, 0.0000000000000000000 ) ;
#172 = DIRECTION ( 'NONE',  ( 0.0000000000000000000, 0.0000000000000000000, 1.000000000000000000 ) ) ;
#173 = CARTESIAN_POINT ( 'NONE',  ( 0.2717573550626253276, 0.0000000000000000000, 0.03300000000000000155 ) ) ;
#174 = VERTEX_POINT ( 'NONE', #115 ) ;
#175 = EDGE_LOOP ( 'NONE', ( #185 ) ) ;
#176 = AXIS2_PLACEMENT_3D ( 'NONE', #165, #70, #172 ) ;
#177 = EDGE_CURVE ( 'NONE', #72, #72, #191, .T. ) ;
#178 = FACE_OUTER_BOUND ( 'NONE', #182, .T. ) ;
#179 = ADVANCED_FACE ( 'NONE', ( #11, #57 ), #194, .T. ) ;
#180 = STYLED_ITEM ( 'NONE', ( #17 ), #132 ) ;
#181 = CARTESIAN_POINT ( 'NONE',  ( -3.334775382890946312E-19, 0.02724999999999999645, 0.0000000000000000000 ) ) ;
#182 = EDGE_LOOP ( 'NONE', ( #150 ) ) ;
#183 = DIRECTION ( 'NONE',  ( 0.0000000000000000000, 0.0000000000000000000, 1.000000000000000000 ) ) ;
#184 = CIRCLE ( 'NONE', #176, 0.01969999999999999876 ) ;
#185 = ORIENTED_EDGE ( 'NONE', *, *, #177, .T. ) ;
#186 = CIRCLE ( 'NONE', #221, 0.03300000000000000155 ) ;
#187 = ORIENTED_EDGE ( 'NONE', *, *, #244, .F. ) ;
#188 = FACE_OUTER_BOUND ( 'NONE', #202, .T. ) ;
#189 = DIRECTION ( 'NONE',  ( -1.000000000000000000, -0.0000000000000000000, -0.0000000000000000000 ) ) ;
#190 =( NAMED_UNIT ( * ) SI_UNIT ( $, .STERADIAN. ) SOLID_ANGLE_UNIT ( ) );
#191 = CIRCLE ( 'NONE', #159, 0.01469999999999999779 ) ;
#192 =( LENGTH_UNIT ( ) NAMED_UNIT ( * ) SI_UNIT ( $, .METRE. ) );
#193 = FILL_AREA_STYLE ('',( #170 ) ) ;
#194 = CYLINDRICAL_SURFACE ( 'NONE', #227, 0.03225000000000000089 ) ;
#195 = CIRCLE ( 'NONE', #43, 0.01970000000000004040 ) ;
#196 = APPLICATION_PROTOCOL_DEFINITION ( 'draft international standard', 'automotive_design', 1998, #2 ) ;
#197 = DIRECTION ( 'NONE',  ( 0.0000000000000000000, 0.0000000000000000000, 1.000000000000000000 ) ) ;
#198 = CIRCLE ( 'NONE', #39, 0.03300000000000000155 ) ;
#199 = DIRECTION ( 'NONE',  ( -1.000000000000000000, -0.0000000000000000000, -0.0000000000000000000 ) ) ;
#200 = FACE_OUTER_BOUND ( 'NONE', #106, .T. ) ;
#201 = AXIS2_PLACEMENT_3D ( 'NONE', #97, #189, #137 ) ;
#202 = EDGE_LOOP ( 'NONE', ( #229 ) ) ;
#203 = DIRECTION ( 'NONE',  ( -1.000000000000000000, -0.0000000000000000000, -0.0000000000000000000 ) ) ;
#204 = EDGE_LOOP ( 'NONE', ( #61 ) ) ;
#205 = DIRECTION ( 'NONE',  ( 0.0000000000000000000, 0.0000000000000000000, 1.000000000000000000 ) ) ;
#206 = CARTESIAN_POINT ( 'NONE',  ( 0.0000000000000000000, 0.0000000000000000000, 0.03224999999999999395 ) ) ;
#207 = CLOSED_SHELL ( 'NONE', ( #228, #33, #166, #55, #179, #5, #48, #27, #208, #235, #217 ) ) ;
#208 = ADVANCED_FACE ( 'NONE', ( #13 ), #114, .F. ) ;
#209 = LENGTH_MEASURE_WITH_UNIT ( LENGTH_MEASURE( 0.02539999999999999897 ), #192 );
#210 = CARTESIAN_POINT ( 'NONE',  ( 0.9739303097578370094, 0.0000000000000000000, 0.02554888892202509046 ) ) ;
#211 = AXIS2_PLACEMENT_3D ( 'NONE', #130, #126, #24 ) ;
#212 = EDGE_CURVE ( 'NONE', #76, #76, #242, .T. ) ;
#213 = VERTEX_POINT ( 'NONE', #216 ) ;
#214 = ORIENTED_EDGE ( 'NONE', *, *, #109, .T. ) ;
#215 = EDGE_LOOP ( 'NONE', ( #6 ) ) ;
#216 = CARTESIAN_POINT ( 'NONE',  ( 0.07000000000000000666, 0.0000000000000000000, 0.03225000000000000783 ) ) ;
#217 = ADVANCED_FACE ( 'NONE', ( #259, #122 ), #258, .F. ) ;
#218 = CIRCLE ( 'NONE', #62, 0.03225000000000000783 ) ;
#219 = CARTESIAN_POINT ( 'NONE',  ( 0.0000000000000000000, 0.0000000000000000000, 0.0000000000000000000 ) ) ;
#220 = DIRECTION ( 'NONE',  ( 1.000000000000000000, 0.0000000000000000000, 0.0000000000000000000 ) ) ;
#221 = AXIS2_PLACEMENT_3D ( 'NONE', #161, #127, #47 ) ;
#222 = DIRECTION ( 'NONE',  ( 0.0000000000000000000, 0.0000000000000000000, 1.000000000000000000 ) ) ;
#223 = MANIFOLD_SOLID_BREP ( 'Revolve6', #207 ) ;
#224 = DIRECTION ( 'NONE',  ( 1.000000000000000000, -0.0000000000000000000, -0.0000000000000000000 ) ) ;
#225 = EDGE_CURVE ( 'NONE', #264, #264, #184, .T. ) ;
#226 = DIRECTION ( 'NONE',  ( 0.0000000000000000000, 0.0000000000000000000, -1.000000000000000000 ) ) ;
#227 = AXIS2_PLACEMENT_3D ( 'NONE', #8, #167, #205 ) ;
#228 = ADVANCED_FACE ( 'NONE', ( #79, #153 ), #236, .T. ) ;
#229 = ORIENTED_EDGE ( 'NONE', *, *, #225, .T. ) ;
#230 = DIRECTION ( 'NONE',  ( -1.000000000000000000, -0.0000000000000000000, -0.0000000000000000000 ) ) ;
#231 = EDGE_LOOP ( 'NONE', ( #3 ) ) ;
#232 =( NAMED_UNIT ( * ) PLANE_ANGLE_UNIT ( ) SI_UNIT ( $, .RADIAN. ) );
#233 = SURFACE_STYLE_FILL_AREA ( #169 ) ;
#234 = LENGTH_MEASURE_WITH_UNIT ( LENGTH_MEASURE( 0.02539999999999999897 ), #119 );
#235 = ADVANCED_FACE ( 'NONE', ( #256, #188 ), #141, .T. ) ;
#236 = CYLINDRICAL_SURFACE ( 'NONE', #134, 0.03300000000000000155 ) ;
#237 = VERTEX_POINT ( 'NONE', #206 ) ;
#238 = EDGE_LOOP ( 'NONE', ( #56 ) ) ;
#239 = EDGE_LOOP ( 'NONE', ( #265 ) ) ;
#240 = DIRECTION ( 'NONE',  ( 0.0000000000000000000, 0.0000000000000000000, 1.000000000000000000 ) ) ;
#241 = MECHANICAL_DESIGN_GEOMETRIC_PRESENTATION_REPRESENTATION (  '', ( #180 ), #262 ) ;
#242 = CIRCLE ( 'NONE', #83, 0.02554888892202509046 ) ;
#243 = DIRECTION ( 'NONE',  ( 1.000000000000000000, 0.0000000000000000000, 0.0000000000000000000 ) ) ;
#244 = EDGE_CURVE ( 'NONE', #174, #174, #198, .T. ) ;
#245 = FACE_OUTER_BOUND ( 'NONE', #251, .T. ) ;
#246 = DIRECTION ( 'NONE',  ( 0.0000000000000000000, 0.0000000000000000000, -1.000000000000000000 ) ) ;
#247 = TOROIDAL_SURFACE ( 'NONE', #103, 0.007437499999999860022, 0.02856250000000013292 ) ;
#248 = CARTESIAN_POINT ( 'NONE',  ( 0.0000000000000000000, 0.0000000000000000000, 0.0000000000000000000 ) ) ;
#249 = CYLINDRICAL_SURFACE ( 'NONE', #14, 0.03300000000000000155 ) ;
#250 = EDGE_LOOP ( 'NONE', ( #100 ) ) ;
#251 = EDGE_LOOP ( 'NONE', ( #187 ) ) ;
#252 = UNCERTAINTY_MEASURE_WITH_UNIT (LENGTH_MEASURE( 1.000000000000000082E-05 ), #31, 'distance_accuracy_value', 'NONE');
#253 =( NAMED_UNIT ( * ) SI_UNIT ( $, .STERADIAN. ) SOLID_ANGLE_UNIT ( ) );
#254 = DIRECTION ( 'NONE',  ( 0.0000000000000000000, 0.0000000000000000000, 1.000000000000000000 ) ) ;
#255 = ORIENTED_EDGE ( 'NONE', *, *, #212, .T. ) ;
#256 = FACE_OUTER_BOUND ( 'NONE', #231, .T. ) ;
#257 = CARTESIAN_POINT ( 'NONE',  ( 0.2972426449373746782, 0.0000000000000000000, 0.03300000000000000155 ) ) ;
#258 = TOROIDAL_SURFACE ( 'NONE', #201, 0.04470000000000000362, 0.02499999999999996322 ) ;
#259 = FACE_OUTER_BOUND ( 'NONE', #204, .T. ) ;
#260 =( CONVERSION_BASED_UNIT ( 'INCH', #234 ) LENGTH_UNIT ( ) NAMED_UNIT ( #171 ) );
#261 = DIMENSIONAL_EXPONENTS ( 1.000000000000000000, 0.0000000000000000000, 0.0000000000000000000, 0.0000000000000000000, 0.0000000000000000000, 0.0000000000000000000, 0.0000000000000000000 ) ;
#262 =( GEOMETRIC_REPRESENTATION_CONTEXT ( 3 ) GLOBAL_UNCERTAINTY_ASSIGNED_CONTEXT ( ( #252 ) ) GLOBAL_UNIT_ASSIGNED_CONTEXT ( ( #31, #94, #32 ) ) REPRESENTATION_CONTEXT ( 'NONE', 'WORKASPACE' ) );
#263 = CARTESIAN_POINT ( 'NONE',  ( 0.9739303097578370094, 0.0000000000000000000, 0.0000000000000000000 ) ) ;
#264 = VERTEX_POINT ( 'NONE', #152 ) ;
#265 = ORIENTED_EDGE ( 'NONE', *, *, #133, .F. ) ;
#266 = SHAPE_DEFINITION_REPRESENTATION ( #267, #132 ) ;
#267 = PRODUCT_DEFINITION_SHAPE ( 'NONE', 'NONE',  #128 ) ;
#268 = PRESENTATION_LAYER_ASSIGNMENT (  '', '', ( #120 ) ) ;
#269 = CARTESIAN_POINT ( 'NONE',  ( 1.299999999999999822, 0.0000000000000000000, 0.0000000000000000000 ) ) ;
ENDSEC;
END-ISO-10303-21;
