ISO-10303-21;
HEADER;
FILE_DESCRIPTION (( 'STEP AP214' ),
    '1' );
FILE_NAME ('100-SDS250M2.STEP',
    '2020-09-28T13:33:51',
    ( '' ),
    ( '' ),
    'SwSTEP 2.0',
    'SolidWorks 2019',
    '' );
FILE_SCHEMA (( 'AUTOMOTIVE_DESIGN' ));
ENDSEC;

DATA;
#1 =( LENGTH_UNIT ( ) NAMED_UNIT ( * ) SI_UNIT ( $, .METRE. ) );
#2 = PRODUCT_CONTEXT ( 'NONE', #21, 'mechanical' ) ;
#3 = CIRCLE ( 'NONE', #227, 0.01469999999999999779 ) ;
#4 = ADVANCED_FACE ( 'NONE', ( #179, #91 ), #70, .T. ) ;
#5 = AXIS2_PLACEMENT_3D ( 'NONE', #138, #100, #109 ) ;
#6 = ORIENTED_EDGE ( 'NONE', *, *, #251, .F. ) ;
#7 = ADVANCED_FACE ( 'NONE', ( #245 ), #208, .F. ) ;
#8 = AXIS2_PLACEMENT_3D ( 'NONE', #74, #157, #189 ) ;
#9 = EDGE_CURVE ( 'NONE', #78, #78, #181, .T. ) ;
#10 = DIRECTION ( 'NONE',  ( -1.000000000000000000, -0.0000000000000000000, -0.0000000000000000000 ) ) ;
#11 = ORIENTED_EDGE ( 'NONE', *, *, #176, .F. ) ;
#12 = DIRECTION ( 'NONE',  ( 0.0000000000000000000, 0.0000000000000000000, -1.000000000000000000 ) ) ;
#13 = ORIENTED_EDGE ( 'NONE', *, *, #176, .T. ) ;
#14 = FACE_BOUND ( 'NONE', #89, .T. ) ;
#15 = CIRCLE ( 'NONE', #5, 0.03300000000000000155 ) ;
#16 = FACE_OUTER_BOUND ( 'NONE', #183, .T. ) ;
#17 = CARTESIAN_POINT ( 'NONE',  ( 0.9559511655051865509, 0.0000000000000000000, 0.0000000000000000000 ) ) ;
#18 = DIRECTION ( 'NONE',  ( 0.0000000000000000000, 0.0000000000000000000, 1.000000000000000000 ) ) ;
#19 = CARTESIAN_POINT ( 'NONE',  ( 0.0000000000000000000, 0.0000000000000000000, 0.0000000000000000000 ) ) ;
#20 = CARTESIAN_POINT ( 'NONE',  ( 1.182000000000000162, 0.0000000000000000000, 0.0000000000000000000 ) ) ;
#21 = APPLICATION_CONTEXT ( 'automotive_design' ) ;
#22 = AXIS2_PLACEMENT_3D ( 'NONE', #60, #229, #53 ) ;
#23 = CARTESIAN_POINT ( 'NONE',  ( 1.187000000000000277, 0.0000000000000000000, 0.01469999999999999779 ) ) ;
#24 = ORIENTED_EDGE ( 'NONE', *, *, #172, .F. ) ;
#25 = ADVANCED_FACE ( 'NONE', ( #159 ), #136, .F. ) ;
#26 = STYLED_ITEM ( 'NONE', ( #62 ), #174 ) ;
#27 = CARTESIAN_POINT ( 'NONE',  ( 0.2717573550626253276, 0.0000000000000000000, 0.03300000000000000155 ) ) ;
#28 = ORIENTED_EDGE ( 'NONE', *, *, #236, .T. ) ;
#29 = SURFACE_STYLE_FILL_AREA ( #218 ) ;
#30 = EDGE_LOOP ( 'NONE', ( #93 ) ) ;
#31 = CARTESIAN_POINT ( 'NONE',  ( -3.334775382890946312E-19, 0.02724999999999999645, 0.0000000000000000000 ) ) ;
#32 = TOROIDAL_SURFACE ( 'NONE', #165, 0.007583073558414942829, 0.02541692644158504225 ) ;
#33 = CYLINDRICAL_SURFACE ( 'NONE', #45, 0.01970000000000001958 ) ;
#34 = FACE_OUTER_BOUND ( 'NONE', #252, .T. ) ;
#35 =( CONVERSION_BASED_UNIT ( 'INCH', #115 ) LENGTH_UNIT ( ) NAMED_UNIT ( #77 ) );
#36 = DIRECTION ( 'NONE',  ( -1.000000000000000000, -0.0000000000000000000, -0.0000000000000000000 ) ) ;
#37 = DIRECTION ( 'NONE',  ( -1.000000000000000000, 0.0000000000000000000, -0.0000000000000000000 ) ) ;
#38 =( NAMED_UNIT ( * ) PLANE_ANGLE_UNIT ( ) SI_UNIT ( $, .RADIAN. ) );
#39 = PRODUCT_DEFINITION ( 'UNKNOWN', '', #86, #110 ) ;
#40 = FILL_AREA_STYLE ('',( #61 ) ) ;
#41 = APPLICATION_PROTOCOL_DEFINITION ( 'draft international standard', 'automotive_design', 1998, #21 ) ;
#42 = LENGTH_MEASURE_WITH_UNIT ( LENGTH_MEASURE( 0.02539999999999999897 ), #1 );
#43 = CONICAL_SURFACE ( 'NONE', #233, 0.03300000000000000155, 0.7853981633974426169 ) ;
#44 =( GEOMETRIC_REPRESENTATION_CONTEXT ( 3 ) GLOBAL_UNCERTAINTY_ASSIGNED_CONTEXT ( ( #147 ) ) GLOBAL_UNIT_ASSIGNED_CONTEXT ( ( #212, #191, #211 ) ) REPRESENTATION_CONTEXT ( 'NONE', 'WORKASPACE' ) );
#45 = AXIS2_PLACEMENT_3D ( 'NONE', #79, #239, #264 ) ;
#46 = AXIS2_PLACEMENT_3D ( 'NONE', #20, #83, #156 ) ;
#47 = ORIENTED_EDGE ( 'NONE', *, *, #90, .T. ) ;
#48 = UNCERTAINTY_MEASURE_WITH_UNIT (LENGTH_MEASURE( 1.000000000000000082E-05 ), #35, 'distance_accuracy_value', 'NONE');
#49 = EDGE_LOOP ( 'NONE', ( #72 ) ) ;
#50 = DIRECTION ( 'NONE',  ( -1.000000000000000000, -0.0000000000000000000, -0.0000000000000000000 ) ) ;
#51 = DIRECTION ( 'NONE',  ( 1.000000000000000000, -0.0000000000000000000, -0.0000000000000000000 ) ) ;
#52 = EDGE_LOOP ( 'NONE', ( #105 ) ) ;
#53 = DIRECTION ( 'NONE',  ( 0.0000000000000000000, 0.0000000000000000000, 1.000000000000000000 ) ) ;
#54 = ORIENTED_EDGE ( 'NONE', *, *, #251, .T. ) ;
#55 = CYLINDRICAL_SURFACE ( 'NONE', #192, 0.03225000000000000089 ) ;
#56 = CIRCLE ( 'NONE', #112, 0.03300000000000000155 ) ;
#57 = EDGE_CURVE ( 'NONE', #160, #160, #63, .T. ) ;
#58 = VERTEX_POINT ( 'NONE', #164 ) ;
#59 = DIRECTION ( 'NONE',  ( -1.000000000000000000, -0.0000000000000000000, -0.0000000000000000000 ) ) ;
#60 = CARTESIAN_POINT ( 'NONE',  ( 1.182000000000000162, 0.0000000000000000000, 0.0000000000000000000 ) ) ;
#61 = FILL_AREA_STYLE_COLOUR ( '', #106 ) ;
#62 = PRESENTATION_STYLE_ASSIGNMENT (( #145 ) ) ;
#63 = CIRCLE ( 'NONE', #234, 0.03225000000000000783 ) ;
#64 = CARTESIAN_POINT ( 'NONE',  ( 0.9899999999999997691, 0.0000000000000000000, 0.01970000000000004040 ) ) ;
#65 =( LENGTH_UNIT ( ) NAMED_UNIT ( * ) SI_UNIT ( $, .METRE. ) );
#66 = FACE_OUTER_BOUND ( 'NONE', #30, .T. ) ;
#67 = ADVANCED_FACE ( 'NONE', ( #248, #262 ), #55, .T. ) ;
#68 = MECHANICAL_DESIGN_GEOMETRIC_PRESENTATION_REPRESENTATION (  '', ( #26 ), #169 ) ;
#69 = COLOUR_RGB ( '',0.7529411764705882248, 0.7529411764705882248, 0.7529411764705882248 ) ;
#70 = CYLINDRICAL_SURFACE ( 'NONE', #263, 0.03300000000000000155 ) ;
#71 = FACE_OUTER_BOUND ( 'NONE', #255, .T. ) ;
#72 = ORIENTED_EDGE ( 'NONE', *, *, #57, .T. ) ;
#73 = ADVANCED_FACE ( 'NONE', ( #119, #223 ), #123, .T. ) ;
#74 = CARTESIAN_POINT ( 'NONE',  ( 0.2844999999999999751, 0.0000000000000000000, 0.0000000000000000000 ) ) ;
#75 = EDGE_LOOP ( 'NONE', ( #220 ) ) ;
#76 = DIRECTION ( 'NONE',  ( -1.000000000000000000, -0.0000000000000000000, -0.0000000000000000000 ) ) ;
#77 = DIMENSIONAL_EXPONENTS ( 1.000000000000000000, 0.0000000000000000000, 0.0000000000000000000, 0.0000000000000000000, 0.0000000000000000000, 0.0000000000000000000, 0.0000000000000000000 ) ;
#78 = VERTEX_POINT ( 'NONE', #178 ) ;
#79 = CARTESIAN_POINT ( 'NONE',  ( -0.04482965506652238086, 0.0000000000000000000, 0.0000000000000000000 ) ) ;
#80 = CARTESIAN_POINT ( 'NONE',  ( 1.187000000000000277, 0.01469999999999999779, 0.0000000000000000000 ) ) ;
#81 = FACE_OUTER_BOUND ( 'NONE', #88, .T. ) ;
#82 = PRESENTATION_LAYER_ASSIGNMENT (  '', '', ( #26 ) ) ;
#83 = DIRECTION ( 'NONE',  ( -1.000000000000000000, -0.0000000000000000000, -0.0000000000000000000 ) ) ;
#84 = DIRECTION ( 'NONE',  ( 0.0000000000000000000, 0.0000000000000000000, 1.000000000000000000 ) ) ;
#85 =( GEOMETRIC_REPRESENTATION_CONTEXT ( 3 ) GLOBAL_UNCERTAINTY_ASSIGNED_CONTEXT ( ( #48 ) ) GLOBAL_UNIT_ASSIGNED_CONTEXT ( ( #35, #132, #204 ) ) REPRESENTATION_CONTEXT ( 'NONE', 'WORKASPACE' ) );
#86 = PRODUCT_DEFINITION_FORMATION_WITH_SPECIFIED_SOURCE ( 'ANY', '', #171, .NOT_KNOWN. ) ;
#87 = PRODUCT_DEFINITION_SHAPE ( 'NONE', 'NONE',  #39 ) ;
#88 = EDGE_LOOP ( 'NONE', ( #47 ) ) ;
#89 = EDGE_LOOP ( 'NONE', ( #240 ) ) ;
#90 = EDGE_CURVE ( 'NONE', #250, #250, #15, .T. ) ;
#91 = FACE_OUTER_BOUND ( 'NONE', #52, .T. ) ;
#92 = ORIENTED_EDGE ( 'NONE', *, *, #170, .F. ) ;
#93 = ORIENTED_EDGE ( 'NONE', *, *, #9, .F. ) ;
#94 = CARTESIAN_POINT ( 'NONE',  ( 0.07075000000000000733, 0.0000000000000000000, 0.0000000000000000000 ) ) ;
#95 = DIRECTION ( 'NONE',  ( 0.0000000000000000000, 0.0000000000000000000, 1.000000000000000000 ) ) ;
#96 = CARTESIAN_POINT ( 'NONE',  ( 0.9559511655051865509, 0.0000000000000000000, 0.0000000000000000000 ) ) ;
#97 = CARTESIAN_POINT ( 'NONE',  ( 0.07000000000000000666, 0.0000000000000000000, 0.0000000000000000000 ) ) ;
#98 = AXIS2_PLACEMENT_3D ( 'NONE', #266, #84, #120 ) ;
#99 = CARTESIAN_POINT ( 'NONE',  ( 0.07000000000000000666, 0.0000000000000000000, 0.03225000000000000783 ) ) ;
#100 = DIRECTION ( 'NONE',  ( -1.000000000000000000, -0.0000000000000000000, -0.0000000000000000000 ) ) ;
#101 = APPLICATION_PROTOCOL_DEFINITION ( 'draft international standard', 'automotive_design', 1998, #214 ) ;
#102 = CARTESIAN_POINT ( 'NONE',  ( 0.0000000000000000000, 0.0000000000000000000, 0.03224999999999999395 ) ) ;
#103 = MECHANICAL_DESIGN_GEOMETRIC_PRESENTATION_REPRESENTATION (  '', ( #224 ), #85 ) ;
#104 = TOROIDAL_SURFACE ( 'NONE', #8, 0.007437499999999860022, 0.02856250000000013292 ) ;
#105 = ORIENTED_EDGE ( 'NONE', *, *, #172, .T. ) ;
#106 = COLOUR_RGB ( '',0.7529411764705882248, 0.7529411764705882248, 0.7529411764705882248 ) ;
#107 = CARTESIAN_POINT ( 'NONE',  ( 1.187000000000000277, 0.0000000000000000000, 0.0000000000000000000 ) ) ;
#108 = ORIENTED_EDGE ( 'NONE', *, *, #90, .F. ) ;
#109 = DIRECTION ( 'NONE',  ( 0.0000000000000000000, 0.0000000000000000000, 1.000000000000000000 ) ) ;
#110 = PRODUCT_DEFINITION_CONTEXT ( 'detailed design', #214, 'design' ) ;
#111 = ORIENTED_EDGE ( 'NONE', *, *, #236, .F. ) ;
#112 = AXIS2_PLACEMENT_3D ( 'NONE', #17, #187, #249 ) ;
#113 = FILL_AREA_STYLE_COLOUR ( '', #69 ) ;
#114 = DIRECTION ( 'NONE',  ( 0.0000000000000000000, 0.0000000000000000000, 1.000000000000000000 ) ) ;
#115 = LENGTH_MEASURE_WITH_UNIT ( LENGTH_MEASURE( 0.02539999999999999897 ), #226 );
#116 = VERTEX_POINT ( 'NONE', #207 ) ;
#117 = AXIS2_PLACEMENT_3D ( 'NONE', #163, #222, #261 ) ;
#118 = DIRECTION ( 'NONE',  ( -1.000000000000000000, -0.0000000000000000000, -0.0000000000000000000 ) ) ;
#119 = FACE_OUTER_BOUND ( 'NONE', #235, .T. ) ;
#120 = DIRECTION ( 'NONE',  ( 1.000000000000000000, 0.0000000000000000000, 0.0000000000000000000 ) ) ;
#121 = AXIS2_PLACEMENT_3D ( 'NONE', #139, #59, #182 ) ;
#122 =( CONVERSION_BASED_UNIT ( 'INCH', #231 ) LENGTH_UNIT ( ) NAMED_UNIT ( #254 ) );
#123 = TOROIDAL_SURFACE ( 'NONE', #46, 0.01469999999999999779, 0.004999999999999973216 ) ;
#124 = ORIENTED_EDGE ( 'NONE', *, *, #148, .F. ) ;
#125 = EDGE_LOOP ( 'NONE', ( #54 ) ) ;
#126 = VERTEX_POINT ( 'NONE', #137 ) ;
#127 = ORIENTED_EDGE ( 'NONE', *, *, #170, .T. ) ;
#128 = DIRECTION ( 'NONE',  ( 0.0000000000000000000, 0.0000000000000000000, -1.000000000000000000 ) ) ;
#129 = DIRECTION ( 'NONE',  ( 0.0000000000000000000, 0.0000000000000000000, 1.000000000000000000 ) ) ;
#130 = EDGE_LOOP ( 'NONE', ( #13 ) ) ;
#131 = DIMENSIONAL_EXPONENTS ( 1.000000000000000000, 0.0000000000000000000, 0.0000000000000000000, 0.0000000000000000000, 0.0000000000000000000, 0.0000000000000000000, 0.0000000000000000000 ) ;
#132 =( NAMED_UNIT ( * ) PLANE_ANGLE_UNIT ( ) SI_UNIT ( $, .RADIAN. ) );
#133 = CYLINDRICAL_SURFACE ( 'NONE', #117, 0.03300000000000000155 ) ;
#134 = CARTESIAN_POINT ( 'NONE',  ( -0.04482965506652238086, 0.0000000000000000000, 0.0000000000000000000 ) ) ;
#135 = TOROIDAL_SURFACE ( 'NONE', #197, 0.04470000000000000362, 0.02499999999999996322 ) ;
#136 = PLANE ( 'NONE',  #238 ) ;
#137 = CARTESIAN_POINT ( 'NONE',  ( 0.9559511655051865509, 0.0000000000000000000, -0.03300000000000000155 ) ) ;
#138 = CARTESIAN_POINT ( 'NONE',  ( 0.2972426449373746782, 0.0000000000000000000, 0.0000000000000000000 ) ) ;
#139 = CARTESIAN_POINT ( 'NONE',  ( 0.2717573550626253276, 0.0000000000000000000, 0.0000000000000000000 ) ) ;
#140 = PRODUCT_RELATED_PRODUCT_CATEGORY ( 'part', '', ( #171 ) ) ;
#141 = CIRCLE ( 'NONE', #198, 0.03224999999999999395 ) ;
#142 = DIRECTION ( 'NONE',  ( 1.000000000000000000, 0.0000000000000000000, 0.0000000000000000000 ) ) ;
#143 = SURFACE_SIDE_STYLE ('',( #190 ) ) ;
#144 = VERTEX_POINT ( 'NONE', #102 ) ;
#145 = SURFACE_STYLE_USAGE ( .BOTH. , #143 ) ;
#146 = MANIFOLD_SOLID_BREP ( 'Revolve7', #257 ) ;
#147 = UNCERTAINTY_MEASURE_WITH_UNIT (LENGTH_MEASURE( 1.000000000000000082E-05 ), #212, 'distance_accuracy_value', 'NONE');
#148 = EDGE_CURVE ( 'NONE', #58, #58, #161, .T. ) ;
#149 = ADVANCED_FACE ( 'NONE', ( #14, #265 ), #43, .T. ) ;
#150 = AXIS2_PLACEMENT_3D ( 'NONE', #202, #36, #205 ) ;
#151 = AXIS2_PLACEMENT_3D ( 'NONE', #167, #221, #18 ) ;
#152 = EDGE_LOOP ( 'NONE', ( #28 ) ) ;
#153 = PRESENTATION_LAYER_ASSIGNMENT (  '', '', ( #224 ) ) ;
#154 = DIRECTION ( 'NONE',  ( -1.000000000000000000, -0.0000000000000000000, -0.0000000000000000000 ) ) ;
#155 = ORIENTED_EDGE ( 'NONE', *, *, #9, .T. ) ;
#156 = DIRECTION ( 'NONE',  ( 0.0000000000000000000, 0.0000000000000000000, 1.000000000000000000 ) ) ;
#157 = DIRECTION ( 'NONE',  ( -1.000000000000000000, -0.0000000000000000000, -0.0000000000000000000 ) ) ;
#158 = EDGE_LOOP ( 'NONE', ( #24 ) ) ;
#159 = FACE_OUTER_BOUND ( 'NONE', #177, .T. ) ;
#160 = VERTEX_POINT ( 'NONE', #99 ) ;
#161 = CIRCLE ( 'NONE', #22, 0.01969999999999999876 ) ;
#162 = DIRECTION ( 'NONE',  ( -1.000000000000000000, -0.0000000000000000000, -0.0000000000000000000 ) ) ;
#163 = CARTESIAN_POINT ( 'NONE',  ( -0.04482965506652238086, 0.0000000000000000000, 0.0000000000000000000 ) ) ;
#164 = CARTESIAN_POINT ( 'NONE',  ( 1.182000000000000162, 0.0000000000000000000, 0.01969999999999999876 ) ) ;
#165 = AXIS2_PLACEMENT_3D ( 'NONE', #96, #51, #12 ) ;
#166 = ADVANCED_FACE ( 'NONE', ( #66, #253 ), #135, .F. ) ;
#167 = CARTESIAN_POINT ( 'NONE',  ( 0.9739303097578370094, 0.0000000000000000000, 0.0000000000000000000 ) ) ;
#168 = SHAPE_DEFINITION_REPRESENTATION ( #87, #174 ) ;
#169 =( GEOMETRIC_REPRESENTATION_CONTEXT ( 3 ) GLOBAL_UNCERTAINTY_ASSIGNED_CONTEXT ( ( #175 ) ) GLOBAL_UNIT_ASSIGNED_CONTEXT ( ( #122, #38, #267 ) ) REPRESENTATION_CONTEXT ( 'NONE', 'WORKASPACE' ) );
#170 = EDGE_CURVE ( 'NONE', #126, #126, #56, .T. ) ;
#171 = PRODUCT ( '100-SDS250M2', '100-SDS250M2', '', ( #2 ) ) ;
#172 = EDGE_CURVE ( 'NONE', #225, #225, #247, .T. ) ;
#173 = AXIS2_PLACEMENT_3D ( 'NONE', #219, #154, #216 ) ;
#174 = ADVANCED_BREP_SHAPE_REPRESENTATION ( '100-SDS250M2', ( #146, #98 ), #44 ) ;
#175 = UNCERTAINTY_MEASURE_WITH_UNIT (LENGTH_MEASURE( 1.000000000000000082E-05 ), #122, 'distance_accuracy_value', 'NONE');
#176 = EDGE_CURVE ( 'NONE', #116, #116, #269, .T. ) ;
#177 = EDGE_LOOP ( 'NONE', ( #111 ) ) ;
#178 = CARTESIAN_POINT ( 'NONE',  ( 0.9739303097578370094, 0.0000000000000000000, 0.02554888892202509046 ) ) ;
#179 = FACE_OUTER_BOUND ( 'NONE', #200, .T. ) ;
#180 = SURFACE_SIDE_STYLE ('',( #29 ) ) ;
#181 = CIRCLE ( 'NONE', #151, 0.02554888892202509046 ) ;
#182 = DIRECTION ( 'NONE',  ( 0.0000000000000000000, 0.0000000000000000000, 1.000000000000000000 ) ) ;
#183 = EDGE_LOOP ( 'NONE', ( #108 ) ) ;
#184 = DIRECTION ( 'NONE',  ( 1.000000000000000000, 0.0000000000000000000, 0.0000000000000000000 ) ) ;
#185 = FACE_OUTER_BOUND ( 'NONE', #237, .T. ) ;
#186 = DIRECTION ( 'NONE',  ( -0.0000000000000000000, 0.0000000000000000000, 1.000000000000000000 ) ) ;
#187 = DIRECTION ( 'NONE',  ( 1.000000000000000000, -0.0000000000000000000, -0.0000000000000000000 ) ) ;
#188 = DIRECTION ( 'NONE',  ( 0.0000000000000000000, 0.0000000000000000000, 1.000000000000000000 ) ) ;
#189 = DIRECTION ( 'NONE',  ( 0.0000000000000000000, 0.0000000000000000000, 1.000000000000000000 ) ) ;
#190 = SURFACE_STYLE_FILL_AREA ( #40 ) ;
#191 =( NAMED_UNIT ( * ) PLANE_ANGLE_UNIT ( ) SI_UNIT ( $, .RADIAN. ) );
#192 = AXIS2_PLACEMENT_3D ( 'NONE', #210, #76, #188 ) ;
#193 = CIRCLE ( 'NONE', #173, 0.01970000000000004040 ) ;
#194 = ADVANCED_FACE ( 'NONE', ( #228, #185 ), #32, .T. ) ;
#195 = AXIS2_PLACEMENT_3D ( 'NONE', #31, #142, #128 ) ;
#196 = ADVANCED_FACE ( 'NONE', ( #209, #81 ), #104, .T. ) ;
#197 = AXIS2_PLACEMENT_3D ( 'NONE', #243, #258, #114 ) ;
#198 = AXIS2_PLACEMENT_3D ( 'NONE', #19, #10, #95 ) ;
#199 = FACE_OUTER_BOUND ( 'NONE', #217, .T. ) ;
#200 = EDGE_LOOP ( 'NONE', ( #11 ) ) ;
#201 = PRESENTATION_STYLE_ASSIGNMENT (( #206 ) ) ;
#202 = CARTESIAN_POINT ( 'NONE',  ( 0.07075000000000000733, 0.0000000000000000000, 0.0000000000000000000 ) ) ;
#203 = ORIENTED_EDGE ( 'NONE', *, *, #213, .F. ) ;
#204 =( NAMED_UNIT ( * ) SI_UNIT ( $, .STERADIAN. ) SOLID_ANGLE_UNIT ( ) );
#205 = DIRECTION ( 'NONE',  ( 0.0000000000000000000, 0.0000000000000000000, 1.000000000000000000 ) ) ;
#206 = SURFACE_STYLE_USAGE ( .BOTH. , #180 ) ;
#207 = CARTESIAN_POINT ( 'NONE',  ( 0.07075000000000000733, 0.0000000000000000000, 0.03300000000000000155 ) ) ;
#208 = PLANE ( 'NONE',  #195 ) ;
#209 = FACE_OUTER_BOUND ( 'NONE', #158, .T. ) ;
#210 = CARTESIAN_POINT ( 'NONE',  ( -0.04482965506652238086, 0.0000000000000000000, 0.0000000000000000000 ) ) ;
#211 =( NAMED_UNIT ( * ) SI_UNIT ( $, .STERADIAN. ) SOLID_ANGLE_UNIT ( ) );
#212 =( CONVERSION_BASED_UNIT ( 'INCH', #42 ) LENGTH_UNIT ( ) NAMED_UNIT ( #131 ) );
#213 = EDGE_CURVE ( 'NONE', #230, #230, #193, .T. ) ;
#214 = APPLICATION_CONTEXT ( 'automotive_design' ) ;
#215 = EDGE_LOOP ( 'NONE', ( #6 ) ) ;
#216 = DIRECTION ( 'NONE',  ( 0.0000000000000000000, 0.0000000000000000000, 1.000000000000000000 ) ) ;
#217 = EDGE_LOOP ( 'NONE', ( #203 ) ) ;
#218 = FILL_AREA_STYLE ('',( #113 ) ) ;
#219 = CARTESIAN_POINT ( 'NONE',  ( 0.9899999999999997691, 0.0000000000000000000, 0.0000000000000000000 ) ) ;
#220 = ORIENTED_EDGE ( 'NONE', *, *, #213, .T. ) ;
#221 = DIRECTION ( 'NONE',  ( -1.000000000000000000, -0.0000000000000000000, -0.0000000000000000000 ) ) ;
#222 = DIRECTION ( 'NONE',  ( -1.000000000000000000, -0.0000000000000000000, -0.0000000000000000000 ) ) ;
#223 = FACE_OUTER_BOUND ( 'NONE', #152, .T. ) ;
#224 = STYLED_ITEM ( 'NONE', ( #201 ), #146 ) ;
#225 = VERTEX_POINT ( 'NONE', #27 ) ;
#226 =( LENGTH_UNIT ( ) NAMED_UNIT ( * ) SI_UNIT ( $, .METRE. ) );
#227 = AXIS2_PLACEMENT_3D ( 'NONE', #107, #118, #129 ) ;
#228 = FACE_OUTER_BOUND ( 'NONE', #259, .T. ) ;
#229 = DIRECTION ( 'NONE',  ( -1.000000000000000000, -0.0000000000000000000, -0.0000000000000000000 ) ) ;
#230 = VERTEX_POINT ( 'NONE', #64 ) ;
#231 = LENGTH_MEASURE_WITH_UNIT ( LENGTH_MEASURE( 0.02539999999999999897 ), #65 );
#232 = ADVANCED_FACE ( 'NONE', ( #16, #71 ), #133, .T. ) ;
#233 = AXIS2_PLACEMENT_3D ( 'NONE', #94, #184, #260 ) ;
#234 = AXIS2_PLACEMENT_3D ( 'NONE', #97, #162, #256 ) ;
#235 = EDGE_LOOP ( 'NONE', ( #124 ) ) ;
#236 = EDGE_CURVE ( 'NONE', #268, #268, #3, .T. ) ;
#237 = EDGE_LOOP ( 'NONE', ( #155 ) ) ;
#238 = AXIS2_PLACEMENT_3D ( 'NONE', #80, #37, #186 ) ;
#239 = DIRECTION ( 'NONE',  ( -1.000000000000000000, -0.0000000000000000000, -0.0000000000000000000 ) ) ;
#240 = ORIENTED_EDGE ( 'NONE', *, *, #57, .F. ) ;
#241 = DIRECTION ( 'NONE',  ( 0.0000000000000000000, 0.0000000000000000000, 1.000000000000000000 ) ) ;
#242 = ADVANCED_FACE ( 'NONE', ( #199, #34 ), #33, .T. ) ;
#243 = CARTESIAN_POINT ( 'NONE',  ( 0.9899999999999997691, 0.0000000000000000000, 0.0000000000000000000 ) ) ;
#244 = ORIENTED_EDGE ( 'NONE', *, *, #148, .T. ) ;
#245 = FACE_OUTER_BOUND ( 'NONE', #125, .T. ) ;
#246 = CARTESIAN_POINT ( 'NONE',  ( 0.2972426449373746782, 0.0000000000000000000, 0.03300000000000000155 ) ) ;
#247 = CIRCLE ( 'NONE', #121, 0.03300000000000000155 ) ;
#248 = FACE_OUTER_BOUND ( 'NONE', #215, .T. ) ;
#249 = DIRECTION ( 'NONE',  ( 0.0000000000000000000, 0.0000000000000000000, -1.000000000000000000 ) ) ;
#250 = VERTEX_POINT ( 'NONE', #246 ) ;
#251 = EDGE_CURVE ( 'NONE', #144, #144, #141, .T. ) ;
#252 = EDGE_LOOP ( 'NONE', ( #244 ) ) ;
#253 = FACE_OUTER_BOUND ( 'NONE', #75, .T. ) ;
#254 = DIMENSIONAL_EXPONENTS ( 1.000000000000000000, 0.0000000000000000000, 0.0000000000000000000, 0.0000000000000000000, 0.0000000000000000000, 0.0000000000000000000, 0.0000000000000000000 ) ;
#255 = EDGE_LOOP ( 'NONE', ( #92 ) ) ;
#256 = DIRECTION ( 'NONE',  ( 0.0000000000000000000, 0.0000000000000000000, 1.000000000000000000 ) ) ;
#257 = CLOSED_SHELL ( 'NONE', ( #232, #196, #4, #149, #67, #7, #194, #73, #25, #242, #166 ) ) ;
#258 = DIRECTION ( 'NONE',  ( -1.000000000000000000, -0.0000000000000000000, -0.0000000000000000000 ) ) ;
#259 = EDGE_LOOP ( 'NONE', ( #127 ) ) ;
#260 = DIRECTION ( 'NONE',  ( 0.0000000000000000000, 0.0000000000000000000, -1.000000000000000000 ) ) ;
#261 = DIRECTION ( 'NONE',  ( 0.0000000000000000000, 0.0000000000000000000, 1.000000000000000000 ) ) ;
#262 = FACE_OUTER_BOUND ( 'NONE', #49, .T. ) ;
#263 = AXIS2_PLACEMENT_3D ( 'NONE', #134, #50, #241 ) ;
#264 = DIRECTION ( 'NONE',  ( 0.0000000000000000000, 0.0000000000000000000, 1.000000000000000000 ) ) ;
#265 = FACE_OUTER_BOUND ( 'NONE', #130, .T. ) ;
#266 = CARTESIAN_POINT ( 'NONE',  ( 0.0000000000000000000, 0.0000000000000000000, 0.0000000000000000000 ) ) ;
#267 =( NAMED_UNIT ( * ) SI_UNIT ( $, .STERADIAN. ) SOLID_ANGLE_UNIT ( ) );
#268 = VERTEX_POINT ( 'NONE', #23 ) ;
#269 = CIRCLE ( 'NONE', #150, 0.03300000000000000155 ) ;
ENDSEC;
END-ISO-10303-21;
