ISO-10303-21;
HEADER;
FILE_DESCRIPTION (( 'STEP AP214' ),
    '1' );
FILE_NAME ('100-SD_251R.STEP',
    '2022-12-27T13:23:10',
    ( '' ),
    ( '' ),
    'SwSTEP 2.0',
    'SolidWorks 2020',
    '' );
FILE_SCHEMA (( 'AUTOMOTIVE_DESIGN' ));
ENDSEC;

DATA;
#1 = AXIS2_PLACEMENT_3D ( 'NONE', #329, #54, #300 ) ;
#2 = AXIS2_PLACEMENT_3D ( 'NONE', #158, #286, #164 ) ;
#3 = EDGE_CURVE ( 'NONE', #136, #136, #5, .T. ) ;
#4 = CARTESIAN_POINT ( 'NONE',  ( -8.670415995516457040E-19, 0.02064999999999999822, 0.000000000000000000 ) ) ;
#5 = CIRCLE ( 'NONE', #93, 0.03249999828896153742 ) ;
#6 = DIRECTION ( 'NONE',  ( -1.000000000000000000, 0.000000000000000000, 0.000000000000000000 ) ) ;
#7 = DIRECTION ( 'NONE',  ( 1.000000000000000000, 0.000000000000000000, 0.000000000000000000 ) ) ;
#8 = CIRCLE ( 'NONE', #61, 0.006500000000000004038 ) ;
#9 = EDGE_LOOP ( 'NONE', ( #376 ) ) ;
#10 = FACE_OUTER_BOUND ( 'NONE', #128, .T. ) ;
#11 = EDGE_LOOP ( 'NONE', ( #250 ) ) ;
#12 = LENGTH_MEASURE_WITH_UNIT ( LENGTH_MEASURE( 0.02539999999999999897 ), #341 );
#13 = FACE_OUTER_BOUND ( 'NONE', #41, .T. ) ;
#14 = EDGE_LOOP ( 'NONE', ( #373 ) ) ;
#15 =( CONVERSION_BASED_UNIT ( 'INCH', #167 ) LENGTH_UNIT ( ) NAMED_UNIT ( #333 ) );
#16 = CARTESIAN_POINT ( 'NONE',  ( 0.7161000000000000698, 0.000000000000000000, 0.03300000000000000155 ) ) ;
#17 = ORIENTED_EDGE ( 'NONE', *, *, #240, .T. ) ;
#18 = AXIS2_PLACEMENT_3D ( 'NONE', #4, #278, #176 ) ;
#19 = CARTESIAN_POINT ( 'NONE',  ( -0.3997375989651543726, -1.733585492888639762E-19, 0.000000000000000000 ) ) ;
#20 = ADVANCED_FACE ( 'NONE', ( #238, #204 ), #288, .T. ) ;
#21 = EDGE_LOOP ( 'NONE', ( #367 ) ) ;
#22 = FILL_AREA_STYLE ('',( #46 ) ) ;
#23 = SURFACE_SIDE_STYLE ('',( #226 ) ) ;
#24 = DIRECTION ( 'NONE',  ( -1.000000000000000000, 0.000000000000000000, 0.000000000000000000 ) ) ;
#25 = AXIS2_PLACEMENT_3D ( 'NONE', #170, #299, #384 ) ;
#26 = AXIS2_PLACEMENT_3D ( 'NONE', #188, #347, #315 ) ;
#27 = CARTESIAN_POINT ( 'NONE',  ( 0.000000000000000000, 0.000000000000000000, 0.000000000000000000 ) ) ;
#28 = FACE_OUTER_BOUND ( 'NONE', #351, .T. ) ;
#29 = AXIS2_PLACEMENT_3D ( 'NONE', #325, #239, #114 ) ;
#30 = DIRECTION ( 'NONE',  ( 0.000000000000000000, 0.000000000000000000, -1.000000000000000000 ) ) ;
#31 =( GEOMETRIC_REPRESENTATION_CONTEXT ( 3 ) GLOBAL_UNCERTAINTY_ASSIGNED_CONTEXT ( ( #244 ) ) GLOBAL_UNIT_ASSIGNED_CONTEXT ( ( #307, #242, #331 ) ) REPRESENTATION_CONTEXT ( 'NONE', 'WORKASPACE' ) );
#32 = FACE_OUTER_BOUND ( 'NONE', #9, .T. ) ;
#33 = DIRECTION ( 'NONE',  ( 0.000000000000000000, 0.000000000000000000, 1.000000000000000000 ) ) ;
#34 = DIRECTION ( 'NONE',  ( -1.000000000000000000, 0.000000000000000000, 0.000000000000000000 ) ) ;
#35 = ADVANCED_FACE ( 'NONE', ( #296, #381 ), #335, .T. ) ;
#36 = FACE_OUTER_BOUND ( 'NONE', #48, .T. ) ;
#37 = CYLINDRICAL_SURFACE ( 'NONE', #388, 0.02350000000000000352 ) ;
#38 = DIRECTION ( 'NONE',  ( 0.000000000000000000, 0.000000000000000000, 1.000000000000000000 ) ) ;
#39 = ORIENTED_EDGE ( 'NONE', *, *, #77, .T. ) ;
#40 = DIRECTION ( 'NONE',  ( 0.000000000000000000, 0.000000000000000000, 1.000000000000000000 ) ) ;
#41 = EDGE_LOOP ( 'NONE', ( #316 ) ) ;
#42 = VERTEX_POINT ( 'NONE', #199 ) ;
#43 = AXIS2_PLACEMENT_3D ( 'NONE', #112, #269, #143 ) ;
#44 = DIRECTION ( 'NONE',  ( 0.000000000000000000, -0.06132231097945985143, -0.9981180161564755515 ) ) ;
#45 = ORIENTED_EDGE ( 'NONE', *, *, #77, .F. ) ;
#46 = FILL_AREA_STYLE_COLOUR ( '', #260 ) ;
#47 = DIRECTION ( 'NONE',  ( 0.000000000000000000, 0.000000000000000000, 1.000000000000000000 ) ) ;
#48 = EDGE_LOOP ( 'NONE', ( #233 ) ) ;
#49 = DIRECTION ( 'NONE',  ( 0.000000000000000000, 0.000000000000000000, 1.000000000000000000 ) ) ;
#50 = DIRECTION ( 'NONE',  ( 0.000000000000000000, 0.000000000000000000, 1.000000000000000000 ) ) ;
#51 = FACE_OUTER_BOUND ( 'NONE', #156, .T. ) ;
#52 = AXIS2_PLACEMENT_3D ( 'NONE', #334, #125, #241 ) ;
#53 = CIRCLE ( 'NONE', #346, 0.03300000000000000155 ) ;
#54 = DIRECTION ( 'NONE',  ( -1.000000000000000000, 0.000000000000000000, 0.000000000000000000 ) ) ;
#55 = DIMENSIONAL_EXPONENTS ( 1.000000000000000000, 0.000000000000000000, 0.000000000000000000, 0.000000000000000000, 0.000000000000000000, 0.000000000000000000, 0.000000000000000000 ) ;
#56 = DIRECTION ( 'NONE',  ( 1.000000000000000000, 0.000000000000000000, 0.000000000000000000 ) ) ;
#57 = TOROIDAL_SURFACE ( 'NONE', #147, 0.01350000551334616314, 0.01900000000000000300 ) ;
#58 = EDGE_CURVE ( 'NONE', #291, #291, #321, .T. ) ;
#59 = CARTESIAN_POINT ( 'NONE',  ( 0.06400000000000000133, 0.000000000000000000, 0.000000000000000000 ) ) ;
#60 = AXIS2_PLACEMENT_3D ( 'NONE', #279, #100, #339 ) ;
#61 = AXIS2_PLACEMENT_3D ( 'NONE', #214, #126, #337 ) ;
#62 = SURFACE_STYLE_FILL_AREA ( #149 ) ;
#63 = EDGE_CURVE ( 'NONE', #257, #257, #160, .T. ) ;
#64 = FACE_BOUND ( 'NONE', #162, .T. ) ;
#65 = CIRCLE ( 'NONE', #1, 0.02064999999999999822 ) ;
#66 = CARTESIAN_POINT ( 'NONE',  ( 1.004250000000000087, 0.000000000000000000, 0.000000000000000000 ) ) ;
#67 = STYLED_ITEM ( 'NONE', ( #294 ), #297 ) ;
#68 = FACE_OUTER_BOUND ( 'NONE', #76, .T. ) ;
#69 = FACE_OUTER_BOUND ( 'NONE', #280, .T. ) ;
#70 = ORIENTED_EDGE ( 'NONE', *, *, #330, .T. ) ;
#71 = DIRECTION ( 'NONE',  ( 1.000000000000000000, 4.336808689942014847E-19, -1.303942172654869890E-33 ) ) ;
#72 = CIRCLE ( 'NONE', #26, 0.01242500000000000895 ) ;
#73 = ORIENTED_EDGE ( 'NONE', *, *, #229, .T. ) ;
#74 = CARTESIAN_POINT ( 'NONE',  ( 0.1016088826688043290, 0.000000000000000000, 0.02731818415717693002 ) ) ;
#75 = FACE_OUTER_BOUND ( 'NONE', #135, .T. ) ;
#76 = EDGE_LOOP ( 'NONE', ( #73 ) ) ;
#77 = EDGE_CURVE ( 'NONE', #106, #106, #247, .T. ) ;
#78 = AXIS2_PLACEMENT_3D ( 'NONE', #169, #24, #265 ) ;
#79 = VERTEX_POINT ( 'NONE', #322 ) ;
#80 = EDGE_LOOP ( 'NONE', ( #354 ) ) ;
#81 = VERTEX_POINT ( 'NONE', #289 ) ;
#82 = VERTEX_POINT ( 'NONE', #261 ) ;
#83 = ORIENTED_EDGE ( 'NONE', *, *, #157, .T. ) ;
#84 = CARTESIAN_POINT ( 'NONE',  ( -0.3997375989651543726, 0.0007619297139197891196, 0.01240161635074421738 ) ) ;
#85 = CARTESIAN_POINT ( 'NONE',  ( 0.07635614734772262768, 0.000000000000000000, 0.000000000000000000 ) ) ;
#86 = FACE_OUTER_BOUND ( 'NONE', #21, .T. ) ;
#87 = DIRECTION ( 'NONE',  ( -1.000000000000000000, 0.000000000000000000, 0.000000000000000000 ) ) ;
#88 = PRODUCT_DEFINITION_SHAPE ( 'NONE', 'NONE',  #258 ) ;
#89 = PRESENTATION_LAYER_ASSIGNMENT (  '', '', ( #67 ) ) ;
#90 = FACE_BOUND ( 'NONE', #107, .T. ) ;
#91 = AXIS2_PLACEMENT_3D ( 'NONE', #220, #7, #96 ) ;
#92 = SURFACE_SIDE_STYLE ('',( #62 ) ) ;
#93 = AXIS2_PLACEMENT_3D ( 'NONE', #200, #237, #49 ) ;
#94 = CARTESIAN_POINT ( 'NONE',  ( 0.07635614734772262768, 0.000000000000000000, 0.000000000000000000 ) ) ;
#95 = AXIS2_PLACEMENT_3D ( 'NONE', #94, #389, #33 ) ;
#96 = DIRECTION ( 'NONE',  ( 0.000000000000000000, 0.000000000000000000, -1.000000000000000000 ) ) ;
#97 = ADVANCED_FACE ( 'NONE', ( #51, #139 ), #198, .T. ) ;
#98 = CARTESIAN_POINT ( 'NONE',  ( 1.080000000000000071, 0.03225000000000000089, 0.000000000000000000 ) ) ;
#99 = EDGE_LOOP ( 'NONE', ( #101 ) ) ;
#100 = DIRECTION ( 'NONE',  ( -1.000000000000000000, 0.000000000000000000, 0.000000000000000000 ) ) ;
#101 = ORIENTED_EDGE ( 'NONE', *, *, #58, .F. ) ;
#102 =( NAMED_UNIT ( * ) PLANE_ANGLE_UNIT ( ) SI_UNIT ( $, .RADIAN. ) );
#103 = DIRECTION ( 'NONE',  ( 1.000000000000000000, 0.000000000000000000, 0.000000000000000000 ) ) ;
#104 = TOROIDAL_SURFACE ( 'NONE', #308, 0.03465000000000000024, 0.01400000000000000203 ) ;
#105 = ORIENTED_EDGE ( 'NONE', *, *, #58, .T. ) ;
#106 = VERTEX_POINT ( 'NONE', #227 ) ;
#107 = EDGE_LOOP ( 'NONE', ( #228 ) ) ;
#108 = VERTEX_POINT ( 'NONE', #222 ) ;
#109 = VERTEX_POINT ( 'NONE', #232 ) ;
#110 = EDGE_LOOP ( 'NONE', ( #196 ) ) ;
#111 = DIRECTION ( 'NONE',  ( 0.000000000000000000, 0.000000000000000000, 1.000000000000000000 ) ) ;
#112 = CARTESIAN_POINT ( 'NONE',  ( 0.000000000000000000, 0.000000000000000000, 0.000000000000000000 ) ) ;
#113 = AXIS2_PLACEMENT_3D ( 'NONE', #369, #127, #152 ) ;
#114 = DIRECTION ( 'NONE',  ( 0.000000000000000000, 0.000000000000000000, 1.000000000000000000 ) ) ;
#115 = AXIS2_PLACEMENT_3D ( 'NONE', #120, #382, #30 ) ;
#116 = CARTESIAN_POINT ( 'NONE',  ( 0.7020499999999999519, 0.000000000000000000, 0.000000000000000000 ) ) ;
#117 = CARTESIAN_POINT ( 'NONE',  ( 0.000000000000000000, 0.000000000000000000, 0.000000000000000000 ) ) ;
#118 = PRODUCT_RELATED_PRODUCT_CATEGORY ( 'part', '', ( #268 ) ) ;
#119 = CIRCLE ( 'NONE', #95, 0.02350000000000000352 ) ;
#120 = CARTESIAN_POINT ( 'NONE',  ( 0.07067807367386122475, 0.000000000000000000, 0.000000000000000000 ) ) ;
#121 = AXIS2_PLACEMENT_3D ( 'NONE', #380, #111, #234 ) ;
#122 = CARTESIAN_POINT ( 'NONE',  ( 0.000000000000000000, -2.665687976667864875E-34, -5.346162907884965881E-34 ) ) ;
#123 = AXIS2_PLACEMENT_3D ( 'NONE', #311, #71, #217 ) ;
#124 = PRESENTATION_STYLE_ASSIGNMENT (( #362 ) ) ;
#125 = DIRECTION ( 'NONE',  ( -1.000000000000000000, 0.000000000000000000, 0.000000000000000000 ) ) ;
#126 = DIRECTION ( 'NONE',  ( -1.000000000000000000, -4.336808689942014847E-19, 1.543271059696420034E-33 ) ) ;
#127 = DIRECTION ( 'NONE',  ( 1.000000000000000000, 4.336808689942019662E-19, 1.998152317301757198E-33 ) ) ;
#128 = EDGE_LOOP ( 'NONE', ( #379 ) ) ;
#129 = DIRECTION ( 'NONE',  ( -1.000000000000000000, 0.000000000000000000, 0.000000000000000000 ) ) ;
#130 = EDGE_LOOP ( 'NONE', ( #166 ) ) ;
#131 = ADVANCED_FACE ( 'NONE', ( #235, #356 ), #194, .T. ) ;
#132 = FACE_OUTER_BOUND ( 'NONE', #80, .T. ) ;
#133 = EDGE_LOOP ( 'NONE', ( #105 ) ) ;
#134 = FACE_BOUND ( 'NONE', #320, .T. ) ;
#135 = EDGE_LOOP ( 'NONE', ( #323 ) ) ;
#136 = VERTEX_POINT ( 'NONE', #161 ) ;
#137 = ORIENTED_EDGE ( 'NONE', *, *, #290, .F. ) ;
#138 = VERTEX_POINT ( 'NONE', #193 ) ;
#139 = FACE_OUTER_BOUND ( 'NONE', #259, .T. ) ;
#140 = EDGE_CURVE ( 'NONE', #79, #79, #352, .T. ) ;
#141 = DIRECTION ( 'NONE',  ( -1.000000000000000000, 0.000000000000000000, 0.000000000000000000 ) ) ;
#142 = CONICAL_SURFACE ( 'NONE', #91, 0.03300000000000000155, 0.0008720444885036713126 ) ;
#143 = DIRECTION ( 'NONE',  ( 0.000000000000000000, 0.000000000000000000, 1.000000000000000000 ) ) ;
#144 = ADVANCED_FACE ( 'NONE', ( #328, #86 ), #57, .T. ) ;
#145 = FACE_OUTER_BOUND ( 'NONE', #99, .T. ) ;
#146 = CARTESIAN_POINT ( 'NONE',  ( 0.1146495091478950817, 0.000000000000000000, 0.000000000000000000 ) ) ;
#147 = AXIS2_PLACEMENT_3D ( 'NONE', #146, #207, #303 ) ;
#148 =( LENGTH_UNIT ( ) NAMED_UNIT ( * ) SI_UNIT ( $, .METRE. ) );
#149 = FILL_AREA_STYLE ('',( #275 ) ) ;
#150 = PLANE ( 'NONE',  #18 ) ;
#151 = ADVANCED_FACE ( 'NONE', ( #270, #387 ), #201, .T. ) ;
#152 = DIRECTION ( 'NONE',  ( 2.659431311430683907E-20, -0.06132231097945985837, -0.9981180161564755515 ) ) ;
#153 = ORIENTED_EDGE ( 'NONE', *, *, #281, .T. ) ;
#154 = AXIS2_PLACEMENT_3D ( 'NONE', #365, #313, #38 ) ;
#155 = CARTESIAN_POINT ( 'NONE',  ( 0.6880000000000000560, 0.000000000000000000, 0.000000000000000000 ) ) ;
#156 = EDGE_LOOP ( 'NONE', ( #83 ) ) ;
#157 = EDGE_CURVE ( 'NONE', #109, #109, #65, .T. ) ;
#158 = CARTESIAN_POINT ( 'NONE',  ( 0.09199999999999999845, 0.000000000000000000, 0.000000000000000000 ) ) ;
#159 = ORIENTED_EDGE ( 'NONE', *, *, #272, .T. ) ;
#160 = CIRCLE ( 'NONE', #301, 0.02064999999999999822 ) ;
#161 = CARTESIAN_POINT ( 'NONE',  ( 0.1146329403047135903, 0.000000000000000000, 0.03249999828896153742 ) ) ;
#162 = EDGE_LOOP ( 'NONE', ( #159 ) ) ;
#163 = CARTESIAN_POINT ( 'NONE',  ( 0.07067807367386122475, 0.000000000000000000, 0.02229685427572740061 ) ) ;
#164 = DIRECTION ( 'NONE',  ( 0.000000000000000000, 0.000000000000000000, 1.000000000000000000 ) ) ;
#165 = AXIS2_PLACEMENT_3D ( 'NONE', #117, #56, #336 ) ;
#166 = ORIENTED_EDGE ( 'NONE', *, *, #264, .F. ) ;
#167 = LENGTH_MEASURE_WITH_UNIT ( LENGTH_MEASURE( 0.02539999999999999897 ), #349 );
#168 = DIRECTION ( 'NONE',  ( 0.000000000000000000, 0.000000000000000000, 1.000000000000000000 ) ) ;
#169 = CARTESIAN_POINT ( 'NONE',  ( 0.09199999999999999845, 0.000000000000000000, 0.000000000000000000 ) ) ;
#170 = CARTESIAN_POINT ( 'NONE',  ( 0.000000000000000000, 0.000000000000000000, 0.000000000000000000 ) ) ;
#171 = AXIS2_PLACEMENT_3D ( 'NONE', #98, #224, #249 ) ;
#172 = ADVANCED_FACE ( 'NONE', ( #28, #145 ), #385, .T. ) ;
#173 = DIRECTION ( 'NONE',  ( 0.000000000000000000, 0.000000000000000000, 1.000000000000000000 ) ) ;
#174 = AXIS2_PLACEMENT_3D ( 'NONE', #116, #87, #168 ) ;
#175 = EDGE_LOOP ( 'NONE', ( #218 ) ) ;
#176 = DIRECTION ( 'NONE',  ( 0.000000000000000000, 0.000000000000000000, -1.000000000000000000 ) ) ;
#177 = AXIS2_PLACEMENT_3D ( 'NONE', #122, #246, #364 ) ;
#178 = UNCERTAINTY_MEASURE_WITH_UNIT (LENGTH_MEASURE( 1.000000000000000082E-05 ), #371, 'distance_accuracy_value', 'NONE');
#179 = LENGTH_MEASURE_WITH_UNIT ( LENGTH_MEASURE( 0.02539999999999999897 ), #148 );
#180 = ADVANCED_FACE ( 'NONE', ( #64, #210 ), #298, .T. ) ;
#181 = FACE_BOUND ( 'NONE', #14, .T. ) ;
#182 = AXIS2_PLACEMENT_3D ( 'NONE', #19, #319, #44 ) ;
#183 = CYLINDRICAL_SURFACE ( 'NONE', #123, 0.01242500000000000895 ) ;
#184 = PLANE ( 'NONE',  #171 ) ;
#185 = EDGE_LOOP ( 'NONE', ( #153 ) ) ;
#186 = APPLICATION_PROTOCOL_DEFINITION ( 'draft international standard', 'automotive_design', 1998, #305 ) ;
#187 = CIRCLE ( 'NONE', #211, 0.03225000000000000089 ) ;
#188 = CARTESIAN_POINT ( 'NONE',  ( -0.3997375989651543726, -1.733585492888639762E-19, 0.000000000000000000 ) ) ;
#189 = EDGE_LOOP ( 'NONE', ( #285 ) ) ;
#190 = VERTEX_POINT ( 'NONE', #318 ) ;
#191 = DIRECTION ( 'NONE',  ( 0.000000000000000000, 0.000000000000000000, 1.000000000000000000 ) ) ;
#192 = EDGE_LOOP ( 'NONE', ( #39 ) ) ;
#193 = CARTESIAN_POINT ( 'NONE',  ( 1.005000000000000115, 0.000000000000000000, 0.03225000000000000089 ) ) ;
#194 = TOROIDAL_SURFACE ( 'NONE', #267, 0.009500000000000001499, 0.01400000000000000203 ) ;
#195 = DIRECTION ( 'NONE',  ( -1.000000000000000000, 0.000000000000000000, 0.000000000000000000 ) ) ;
#196 = ORIENTED_EDGE ( 'NONE', *, *, #359, .T. ) ;
#197 = ADVANCED_FACE ( 'NONE', ( #32, #273 ), #104, .F. ) ;
#198 = CYLINDRICAL_SURFACE ( 'NONE', #43, 0.02064999999999999822 ) ;
#199 = CARTESIAN_POINT ( 'NONE',  ( 0.06967807367386122386, 0.000000000000000000, 0.02185314572427259766 ) ) ;
#200 = CARTESIAN_POINT ( 'NONE',  ( 0.1146329403047135903, 0.000000000000000000, 0.000000000000000000 ) ) ;
#201 = CYLINDRICAL_SURFACE ( 'NONE', #25, 0.03225000000000000089 ) ;
#202 = EDGE_CURVE ( 'NONE', #378, #378, #119, .T. ) ;
#203 = MANIFOLD_SOLID_BREP ( 'Combine1', #212 ) ;
#204 = FACE_OUTER_BOUND ( 'NONE', #292, .T. ) ;
#205 = APPLICATION_PROTOCOL_DEFINITION ( 'draft international standard', 'automotive_design', 1998, #263 ) ;
#206 =( GEOMETRIC_REPRESENTATION_CONTEXT ( 3 ) GLOBAL_UNCERTAINTY_ASSIGNED_CONTEXT ( ( #306 ) ) GLOBAL_UNIT_ASSIGNED_CONTEXT ( ( #15, #219, #256 ) ) REPRESENTATION_CONTEXT ( 'NONE', 'WORKASPACE' ) );
#207 = DIRECTION ( 'NONE',  ( -1.000000000000000000, 0.000000000000000000, 0.000000000000000000 ) ) ;
#208 = DIMENSIONAL_EXPONENTS ( 1.000000000000000000, 0.000000000000000000, 0.000000000000000000, 0.000000000000000000, 0.000000000000000000, 0.000000000000000000, 0.000000000000000000 ) ;
#209 = FACE_OUTER_BOUND ( 'NONE', #185, .T. ) ;
#210 = FACE_OUTER_BOUND ( 'NONE', #11, .T. ) ;
#211 = AXIS2_PLACEMENT_3D ( 'NONE', #216, #293, #47 ) ;
#212 = CLOSED_SHELL ( 'NONE', ( #317, #213, #97, #197, #20, #131, #368, #343, #144, #245, #35, #172, #180, #151, #338, #310, #383 ) ) ;
#213 = ADVANCED_FACE ( 'NONE', ( #181, #36 ), #150, .F. ) ;
#214 = CARTESIAN_POINT ( 'NONE',  ( -0.4099999999999999756, -1.778091562876228851E-19, 0.000000000000000000 ) ) ;
#215 = MECHANICAL_DESIGN_GEOMETRIC_PRESENTATION_REPRESENTATION (  '', ( #345 ), #31 ) ;
#216 = CARTESIAN_POINT ( 'NONE',  ( 1.005000000000000115, 0.000000000000000000, 0.000000000000000000 ) ) ;
#217 = DIRECTION ( 'NONE',  ( 0.000000000000000000, 0.06132231097945985143, 0.9981180161564755515 ) ) ;
#218 = ORIENTED_EDGE ( 'NONE', *, *, #330, .F. ) ;
#219 =( NAMED_UNIT ( * ) PLANE_ANGLE_UNIT ( ) SI_UNIT ( $, .RADIAN. ) );
#220 = CARTESIAN_POINT ( 'NONE',  ( 0.6880000000000000560, 0.000000000000000000, 0.000000000000000000 ) ) ;
#221 = ORIENTED_EDGE ( 'NONE', *, *, #236, .T. ) ;
#222 = CARTESIAN_POINT ( 'NONE',  ( -0.4099999999999999756, 0.0003985950213664892134, 0.006487767105017095033 ) ) ;
#223 = CIRCLE ( 'NONE', #363, 0.02229685427572740061 ) ;
#224 = DIRECTION ( 'NONE',  ( -1.000000000000000000, 0.000000000000000000, 0.000000000000000000 ) ) ;
#225 = ORIENTED_EDGE ( 'NONE', *, *, #3, .T. ) ;
#226 = SURFACE_STYLE_FILL_AREA ( #22 ) ;
#227 = CARTESIAN_POINT ( 'NONE',  ( 1.080000000000000071, 0.000000000000000000, 0.03225000000000000089 ) ) ;
#228 = ORIENTED_EDGE ( 'NONE', *, *, #3, .F. ) ;
#229 = EDGE_CURVE ( 'NONE', #82, #82, #271, .T. ) ;
#230 = VERTEX_POINT ( 'NONE', #163 ) ;
#231 = AXIS2_PLACEMENT_3D ( 'NONE', #361, #141, #357 ) ;
#232 = CARTESIAN_POINT ( 'NONE',  ( 0.06400000000000000133, 0.000000000000000000, 0.02064999999999999822 ) ) ;
#233 = ORIENTED_EDGE ( 'NONE', *, *, #63, .T. ) ;
#234 = DIRECTION ( 'NONE',  ( 1.000000000000000000, 0.000000000000000000, 0.000000000000000000 ) ) ;
#235 = FACE_OUTER_BOUND ( 'NONE', #287, .T. ) ;
#236 = EDGE_CURVE ( 'NONE', #108, #108, #8, .T. ) ;
#237 = DIRECTION ( 'NONE',  ( -1.000000000000000000, 0.000000000000000000, 0.000000000000000000 ) ) ;
#238 = FACE_BOUND ( 'NONE', #175, .T. ) ;
#239 = DIRECTION ( 'NONE',  ( -1.000000000000000000, 0.000000000000000000, 0.000000000000000000 ) ) ;
#240 = EDGE_CURVE ( 'NONE', #81, #81, #283, .T. ) ;
#241 = DIRECTION ( 'NONE',  ( 0.000000000000000000, 0.000000000000000000, 1.000000000000000000 ) ) ;
#242 =( NAMED_UNIT ( * ) PLANE_ANGLE_UNIT ( ) SI_UNIT ( $, .RADIAN. ) );
#243 = TOROIDAL_SURFACE ( 'NONE', #2, 0.03749999999999999861, 0.01399999999999966376 ) ;
#244 = UNCERTAINTY_MEASURE_WITH_UNIT (LENGTH_MEASURE( 1.000000000000000082E-05 ), #307, 'distance_accuracy_value', 'NONE');
#245 = ADVANCED_FACE ( 'NONE', ( #90, #209 ), #142, .T. ) ;
#246 = DIRECTION ( 'NONE',  ( -1.000000000000000000, -0.000000000000000000, -0.000000000000000000 ) ) ;
#247 = CIRCLE ( 'NONE', #231, 0.03225000000000000089 ) ;
#248 = DIRECTION ( 'NONE',  ( 0.000000000000000000, 0.000000000000000000, 1.000000000000000000 ) ) ;
#249 = DIRECTION ( 'NONE',  ( 0.000000000000000000, 0.000000000000000000, 1.000000000000000000 ) ) ;
#250 = ORIENTED_EDGE ( 'NONE', *, *, #240, .F. ) ;
#251 = FACE_OUTER_BOUND ( 'NONE', #110, .T. ) ;
#252 = EDGE_LOOP ( 'NONE', ( #45 ) ) ;
#253 = SURFACE_STYLE_USAGE ( .BOTH. , #23 ) ;
#254 = CARTESIAN_POINT ( 'NONE',  ( 0.000000000000000000, 0.000000000000000000, 0.000000000000000000 ) ) ;
#255 = ORIENTED_EDGE ( 'NONE', *, *, #264, .T. ) ;
#256 =( NAMED_UNIT ( * ) SI_UNIT ( $, .STERADIAN. ) SOLID_ANGLE_UNIT ( ) );
#257 = VERTEX_POINT ( 'NONE', #375 ) ;
#258 = PRODUCT_DEFINITION ( 'UNKNOWN', '', #302, #274 ) ;
#259 = EDGE_LOOP ( 'NONE', ( #340 ) ) ;
#260 = COLOUR_RGB ( '',0.7529411764705882248, 0.7529411764705882248, 0.7529411764705882248 ) ;
#261 = CARTESIAN_POINT ( 'NONE',  ( 0.000000000000000000, -2.665687976667864875E-34, -0.01242500000000000028 ) ) ;
#262 = EDGE_LOOP ( 'NONE', ( #225 ) ) ;
#263 = APPLICATION_CONTEXT ( 'automotive_design' ) ;
#264 = EDGE_CURVE ( 'NONE', #230, #230, #223, .T. ) ;
#265 = DIRECTION ( 'NONE',  ( 0.000000000000000000, 0.000000000000000000, 1.000000000000000000 ) ) ;
#266 = EDGE_LOOP ( 'NONE', ( #137 ) ) ;
#267 = AXIS2_PLACEMENT_3D ( 'NONE', #85, #327, #50 ) ;
#268 = PRODUCT ( '100-SD_251R', '100-SD_251R', '', ( #358 ) ) ;
#269 = DIRECTION ( 'NONE',  ( 1.000000000000000000, 0.000000000000000000, 0.000000000000000000 ) ) ;
#270 = FACE_OUTER_BOUND ( 'NONE', #192, .T. ) ;
#271 = CIRCLE ( 'NONE', #177, 0.01242500000000000028 ) ;
#272 = EDGE_CURVE ( 'NONE', #138, #138, #187, .T. ) ;
#273 = FACE_OUTER_BOUND ( 'NONE', #348, .T. ) ;
#274 = PRODUCT_DEFINITION_CONTEXT ( 'detailed design', #263, 'design' ) ;
#275 = FILL_AREA_STYLE_COLOUR ( '', #386 ) ;
#276 = CIRCLE ( 'NONE', #60, 0.02185314572427259766 ) ;
#277 = DIRECTION ( 'NONE',  ( 0.000000000000000000, 0.000000000000000000, 1.000000000000000000 ) ) ;
#278 = DIRECTION ( 'NONE',  ( 1.000000000000000000, 0.000000000000000000, 0.000000000000000000 ) ) ;
#279 = CARTESIAN_POINT ( 'NONE',  ( 0.06967807367386122386, 0.000000000000000000, 0.000000000000000000 ) ) ;
#280 = EDGE_LOOP ( 'NONE', ( #221 ) ) ;
#281 = EDGE_CURVE ( 'NONE', #190, #190, #53, .T. ) ;
#282 = AXIS2_PLACEMENT_3D ( 'NONE', #66, #6, #248 ) ;
#283 = CIRCLE ( 'NONE', #282, 0.03300000000000000155 ) ;
#284 = FACE_OUTER_BOUND ( 'NONE', #252, .T. ) ;
#285 = ORIENTED_EDGE ( 'NONE', *, *, #272, .F. ) ;
#286 = DIRECTION ( 'NONE',  ( -1.000000000000000000, 0.000000000000000000, 0.000000000000000000 ) ) ;
#287 = EDGE_LOOP ( 'NONE', ( #370 ) ) ;
#288 = CONICAL_SURFACE ( 'NONE', #115, 0.02229685427572740061, 0.4176096532003674144 ) ;
#289 = CARTESIAN_POINT ( 'NONE',  ( 1.004250000000000087, 0.000000000000000000, 0.03300000000000000155 ) ) ;
#290 = EDGE_CURVE ( 'NONE', #355, #355, #72, .T. ) ;
#291 = VERTEX_POINT ( 'NONE', #16 ) ;
#292 = EDGE_LOOP ( 'NONE', ( #255 ) ) ;
#293 = DIRECTION ( 'NONE',  ( -1.000000000000000000, 0.000000000000000000, 0.000000000000000000 ) ) ;
#294 = PRESENTATION_STYLE_ASSIGNMENT (( #253 ) ) ;
#295 =( GEOMETRIC_REPRESENTATION_CONTEXT ( 3 ) GLOBAL_UNCERTAINTY_ASSIGNED_CONTEXT ( ( #178 ) ) GLOBAL_UNIT_ASSIGNED_CONTEXT ( ( #371, #102, #324 ) ) REPRESENTATION_CONTEXT ( 'NONE', 'WORKASPACE' ) );
#296 = FACE_OUTER_BOUND ( 'NONE', #133, .T. ) ;
#297 = ADVANCED_BREP_SHAPE_REPRESENTATION ( '100-SD_251R', ( #203, #121 ), #206 ) ;
#298 = CONICAL_SURFACE ( 'NONE', #52, 0.03225000000000000089, 0.7853981633973656784 ) ;
#299 = DIRECTION ( 'NONE',  ( 1.000000000000000000, 0.000000000000000000, 0.000000000000000000 ) ) ;
#300 = DIRECTION ( 'NONE',  ( 0.000000000000000000, 0.000000000000000000, 1.000000000000000000 ) ) ;
#301 = AXIS2_PLACEMENT_3D ( 'NONE', #27, #360, #173 ) ;
#302 = PRODUCT_DEFINITION_FORMATION_WITH_SPECIFIED_SOURCE ( 'ANY', '', #268, .NOT_KNOWN. ) ;
#303 = DIRECTION ( 'NONE',  ( 0.000000000000000000, 0.000000000000000000, 1.000000000000000000 ) ) ;
#304 = SHAPE_DEFINITION_REPRESENTATION ( #88, #297 ) ;
#305 = APPLICATION_CONTEXT ( 'automotive_design' ) ;
#306 = UNCERTAINTY_MEASURE_WITH_UNIT (LENGTH_MEASURE( 1.000000000000000082E-05 ), #15, 'distance_accuracy_value', 'NONE');
#307 =( CONVERSION_BASED_UNIT ( 'INCH', #179 ) LENGTH_UNIT ( ) NAMED_UNIT ( #208 ) );
#308 = AXIS2_PLACEMENT_3D ( 'NONE', #59, #34, #277 ) ;
#309 = MECHANICAL_DESIGN_GEOMETRIC_PRESENTATION_REPRESENTATION (  '', ( #67 ), #295 ) ;
#310 = ADVANCED_FACE ( 'NONE', ( #69 ), #342, .F. ) ;
#311 = CARTESIAN_POINT ( 'NONE',  ( -0.4099999999999999756, -1.778091562876228851E-19, 0.000000000000000000 ) ) ;
#312 = EDGE_LOOP ( 'NONE', ( #314 ) ) ;
#313 = DIRECTION ( 'NONE',  ( -1.000000000000000000, 0.000000000000000000, 0.000000000000000000 ) ) ;
#314 = ORIENTED_EDGE ( 'NONE', *, *, #281, .F. ) ;
#315 = DIRECTION ( 'NONE',  ( 0.000000000000000000, 0.06132231097945985143, 0.9981180161564755515 ) ) ;
#316 = ORIENTED_EDGE ( 'NONE', *, *, #140, .T. ) ;
#317 = ADVANCED_FACE ( 'NONE', ( #284 ), #184, .F. ) ;
#318 = CARTESIAN_POINT ( 'NONE',  ( 0.6880000000000000560, 0.000000000000000000, 0.03300000000000000155 ) ) ;
#319 = DIRECTION ( 'NONE',  ( 1.000000000000000000, 4.336808689942014847E-19, -1.303942172654869890E-33 ) ) ;
#320 = EDGE_LOOP ( 'NONE', ( #344 ) ) ;
#321 = CIRCLE ( 'NONE', #29, 0.03300000000000000155 ) ;
#322 = CARTESIAN_POINT ( 'NONE',  ( 0.09199999999999999845, 0.000000000000000000, 0.02349999999999964617 ) ) ;
#323 = ORIENTED_EDGE ( 'NONE', *, *, #290, .T. ) ;
#324 =( NAMED_UNIT ( * ) SI_UNIT ( $, .STERADIAN. ) SOLID_ANGLE_UNIT ( ) );
#325 = CARTESIAN_POINT ( 'NONE',  ( 0.7161000000000000698, 0.000000000000000000, 0.000000000000000000 ) ) ;
#326 = VERTEX_POINT ( 'NONE', #74 ) ;
#327 = DIRECTION ( 'NONE',  ( -1.000000000000000000, 0.000000000000000000, 0.000000000000000000 ) ) ;
#328 = FACE_OUTER_BOUND ( 'NONE', #262, .T. ) ;
#329 = CARTESIAN_POINT ( 'NONE',  ( 0.06400000000000000133, 0.000000000000000000, 0.000000000000000000 ) ) ;
#330 = EDGE_CURVE ( 'NONE', #42, #42, #276, .T. ) ;
#331 =( NAMED_UNIT ( * ) SI_UNIT ( $, .STERADIAN. ) SOLID_ANGLE_UNIT ( ) );
#332 = CIRCLE ( 'NONE', #154, 0.02731818415717693002 ) ;
#333 = DIMENSIONAL_EXPONENTS ( 1.000000000000000000, 0.000000000000000000, 0.000000000000000000, 0.000000000000000000, 0.000000000000000000, 0.000000000000000000, 0.000000000000000000 ) ;
#334 = CARTESIAN_POINT ( 'NONE',  ( 1.005000000000000115, 0.000000000000000000, 0.000000000000000000 ) ) ;
#335 = TOROIDAL_SURFACE ( 'NONE', #174, 0.006549642857142795593, 0.02995035714285716744 ) ;
#336 = DIRECTION ( 'NONE',  ( 0.000000000000000000, 0.000000000000000000, 1.000000000000000000 ) ) ;
#337 = DIRECTION ( 'NONE',  ( 0.000000000000000000, 0.06132231097945986531, 0.9981180161564755515 ) ) ;
#338 = ADVANCED_FACE ( 'NONE', ( #350, #68 ), #183, .T. ) ;
#339 = DIRECTION ( 'NONE',  ( 0.000000000000000000, 0.000000000000000000, 1.000000000000000000 ) ) ;
#340 = ORIENTED_EDGE ( 'NONE', *, *, #63, .F. ) ;
#341 =( LENGTH_UNIT ( ) NAMED_UNIT ( * ) SI_UNIT ( $, .METRE. ) );
#342 = PLANE ( 'NONE',  #113 ) ;
#343 = ADVANCED_FACE ( 'NONE', ( #10, #251 ), #243, .F. ) ;
#344 = ORIENTED_EDGE ( 'NONE', *, *, #236, .F. ) ;
#345 = STYLED_ITEM ( 'NONE', ( #124 ), #203 ) ;
#346 = AXIS2_PLACEMENT_3D ( 'NONE', #155, #195, #40 ) ;
#347 = DIRECTION ( 'NONE',  ( -1.000000000000000000, -4.336808689942014847E-19, 1.303942172654869890E-33 ) ) ;
#348 = EDGE_LOOP ( 'NONE', ( #70 ) ) ;
#349 =( LENGTH_UNIT ( ) NAMED_UNIT ( * ) SI_UNIT ( $, .METRE. ) );
#350 = FACE_OUTER_BOUND ( 'NONE', #266, .T. ) ;
#351 = EDGE_LOOP ( 'NONE', ( #17 ) ) ;
#352 = CIRCLE ( 'NONE', #78, 0.02349999999999964617 ) ;
#353 = CARTESIAN_POINT ( 'NONE',  ( 0.07635614734772262768, 0.000000000000000000, 0.02350000000000000352 ) ) ;
#354 = ORIENTED_EDGE ( 'NONE', *, *, #202, .F. ) ;
#355 = VERTEX_POINT ( 'NONE', #84 ) ;
#356 = FACE_OUTER_BOUND ( 'NONE', #130, .T. ) ;
#357 = DIRECTION ( 'NONE',  ( 0.000000000000000000, 0.000000000000000000, 1.000000000000000000 ) ) ;
#358 = PRODUCT_CONTEXT ( 'NONE', #305, 'mechanical' ) ;
#359 = EDGE_CURVE ( 'NONE', #326, #326, #332, .T. ) ;
#360 = DIRECTION ( 'NONE',  ( -1.000000000000000000, 0.000000000000000000, 0.000000000000000000 ) ) ;
#361 = CARTESIAN_POINT ( 'NONE',  ( 1.080000000000000071, 0.000000000000000000, 0.000000000000000000 ) ) ;
#362 = SURFACE_STYLE_USAGE ( .BOTH. , #92 ) ;
#363 = AXIS2_PLACEMENT_3D ( 'NONE', #366, #129, #191 ) ;
#364 = DIRECTION ( 'NONE',  ( 0.000000000000000000, 0.000000000000000000, -1.000000000000000000 ) ) ;
#365 = CARTESIAN_POINT ( 'NONE',  ( 0.1016088826688043290, 0.000000000000000000, 0.000000000000000000 ) ) ;
#366 = CARTESIAN_POINT ( 'NONE',  ( 0.07067807367386122475, 0.000000000000000000, 0.000000000000000000 ) ) ;
#367 = ORIENTED_EDGE ( 'NONE', *, *, #359, .F. ) ;
#368 = ADVANCED_FACE ( 'NONE', ( #13, #132 ), #37, .T. ) ;
#369 = CARTESIAN_POINT ( 'NONE',  ( -0.4099999999999999756, -1.778091562876228851E-19, 0.000000000000000000 ) ) ;
#370 = ORIENTED_EDGE ( 'NONE', *, *, #202, .T. ) ;
#371 =( CONVERSION_BASED_UNIT ( 'INCH', #12 ) LENGTH_UNIT ( ) NAMED_UNIT ( #55 ) );
#372 = DIRECTION ( 'NONE',  ( 0.000000000000000000, 0.000000000000000000, 1.000000000000000000 ) ) ;
#373 = ORIENTED_EDGE ( 'NONE', *, *, #229, .F. ) ;
#374 = PRESENTATION_LAYER_ASSIGNMENT (  '', '', ( #345 ) ) ;
#375 = CARTESIAN_POINT ( 'NONE',  ( 0.000000000000000000, 0.000000000000000000, 0.02064999999999999822 ) ) ;
#376 = ORIENTED_EDGE ( 'NONE', *, *, #157, .F. ) ;
#377 = CONICAL_SURFACE ( 'NONE', #182, 0.01242500000000000895, 0.5235987755982992597 ) ;
#378 = VERTEX_POINT ( 'NONE', #353 ) ;
#379 = ORIENTED_EDGE ( 'NONE', *, *, #140, .F. ) ;
#380 = CARTESIAN_POINT ( 'NONE',  ( 0.000000000000000000, 0.000000000000000000, 0.000000000000000000 ) ) ;
#381 = FACE_OUTER_BOUND ( 'NONE', #312, .T. ) ;
#382 = DIRECTION ( 'NONE',  ( 1.000000000000000000, 0.000000000000000000, 0.000000000000000000 ) ) ;
#383 = ADVANCED_FACE ( 'NONE', ( #134, #75 ), #377, .T. ) ;
#384 = DIRECTION ( 'NONE',  ( 0.000000000000000000, 0.000000000000000000, 1.000000000000000000 ) ) ;
#385 = CYLINDRICAL_SURFACE ( 'NONE', #165, 0.03300000000000000155 ) ;
#386 = COLOUR_RGB ( '',0.7529411764705882248, 0.7529411764705882248, 0.7529411764705882248 ) ;
#387 = FACE_OUTER_BOUND ( 'NONE', #189, .T. ) ;
#388 = AXIS2_PLACEMENT_3D ( 'NONE', #254, #103, #372 ) ;
#389 = DIRECTION ( 'NONE',  ( -1.000000000000000000, 0.000000000000000000, 0.000000000000000000 ) ) ;
ENDSEC;
END-ISO-10303-21;
