ISO-10303-21;
HEADER;
FILE_DESCRIPTION (( 'STEP AP214' ),
    '1' );
FILE_NAME ('100-SD_251R1.STEP',
    '2022-12-27T13:23:26',
    ( '' ),
    ( '' ),
    'SwSTEP 2.0',
    'SolidWorks 2020',
    '' );
FILE_SCHEMA (( 'AUTOMOTIVE_DESIGN' ));
ENDSEC;

DATA;
#1 = SURFACE_STYLE_FILL_AREA ( #314 ) ;
#2 = CARTESIAN_POINT ( 'NONE',  ( 0.000000000000000000, 0.000000000000000000, 0.02064999999999999822 ) ) ;
#3 = CIRCLE ( 'NONE', #277, 0.006500000000000004038 ) ;
#4 = DIRECTION ( 'NONE',  ( -1.000000000000000000, 0.000000000000000000, 0.000000000000000000 ) ) ;
#5 = APPLICATION_CONTEXT ( 'automotive_design' ) ;
#6 = FACE_OUTER_BOUND ( 'NONE', #208, .T. ) ;
#7 = EDGE_CURVE ( 'NONE', #63, #63, #170, .T. ) ;
#8 = CARTESIAN_POINT ( 'NONE',  ( 0.09199999999999999845, 0.000000000000000000, 0.000000000000000000 ) ) ;
#9 = EDGE_CURVE ( 'NONE', #108, #108, #240, .T. ) ;
#10 = VERTEX_POINT ( 'NONE', #71 ) ;
#11 = DIRECTION ( 'NONE',  ( 0.000000000000000000, 0.000000000000000000, 1.000000000000000000 ) ) ;
#12 = CARTESIAN_POINT ( 'NONE',  ( 0.1016088826688043290, 0.000000000000000000, 0.000000000000000000 ) ) ;
#13 = DIRECTION ( 'NONE',  ( 0.000000000000000000, 0.000000000000000000, 1.000000000000000000 ) ) ;
#14 = DIRECTION ( 'NONE',  ( 0.000000000000000000, 0.000000000000000000, 1.000000000000000000 ) ) ;
#15 = CIRCLE ( 'NONE', #227, 0.02229685427572740061 ) ;
#16 = LENGTH_MEASURE_WITH_UNIT ( LENGTH_MEASURE( 0.02539999999999999897 ), #38 );
#17 = DIMENSIONAL_EXPONENTS ( 1.000000000000000000, 0.000000000000000000, 0.000000000000000000, 0.000000000000000000, 0.000000000000000000, 0.000000000000000000, 0.000000000000000000 ) ;
#18 = DIRECTION ( 'NONE',  ( -1.000000000000000000, 0.000000000000000000, 0.000000000000000000 ) ) ;
#19 = FACE_OUTER_BOUND ( 'NONE', #177, .T. ) ;
#20 = AXIS2_PLACEMENT_3D ( 'NONE', #246, #249, #313 ) ;
#21 = CARTESIAN_POINT ( 'NONE',  ( 0.7020499999999999519, 0.000000000000000000, 0.000000000000000000 ) ) ;
#22 = ADVANCED_FACE ( 'NONE', ( #37, #276 ), #64, .T. ) ;
#23 = PRODUCT_RELATED_PRODUCT_CATEGORY ( 'part', '', ( #107 ) ) ;
#24 = DIRECTION ( 'NONE',  ( 0.000000000000000000, 0.000000000000000000, -1.000000000000000000 ) ) ;
#25 =( NAMED_UNIT ( * ) PLANE_ANGLE_UNIT ( ) SI_UNIT ( $, .RADIAN. ) );
#26 = ORIENTED_EDGE ( 'NONE', *, *, #173, .F. ) ;
#27 = CIRCLE ( 'NONE', #156, 0.02349999999999964617 ) ;
#28 = PRESENTATION_LAYER_ASSIGNMENT (  '', '', ( #54 ) ) ;
#29 = CIRCLE ( 'NONE', #361, 0.03249999828896153742 ) ;
#30 = EDGE_LOOP ( 'NONE', ( #151 ) ) ;
#31 = ORIENTED_EDGE ( 'NONE', *, *, #113, .F. ) ;
#32 = EDGE_LOOP ( 'NONE', ( #26 ) ) ;
#33 = CLOSED_SHELL ( 'NONE', ( #264, #132, #293, #383, #106, #159, #22, #78, #236, #79, #274, #328, #189, #302, #60, #152, #225 ) ) ;
#34 = CONICAL_SURFACE ( 'NONE', #242, 0.03300000000000000155, 0.0008720444885036713126 ) ;
#35 = ORIENTED_EDGE ( 'NONE', *, *, #213, .F. ) ;
#36 = EDGE_CURVE ( 'NONE', #219, #219, #268, .T. ) ;
#37 = FACE_OUTER_BOUND ( 'NONE', #207, .T. ) ;
#38 =( LENGTH_UNIT ( ) NAMED_UNIT ( * ) SI_UNIT ( $, .METRE. ) );
#39 = AXIS2_PLACEMENT_3D ( 'NONE', #133, #253, #74 ) ;
#40 = EDGE_CURVE ( 'NONE', #10, #10, #84, .T. ) ;
#41 = DIRECTION ( 'NONE',  ( 0.000000000000000000, 0.000000000000000000, -1.000000000000000000 ) ) ;
#42 = DIRECTION ( 'NONE',  ( 0.000000000000000000, 0.000000000000000000, 1.000000000000000000 ) ) ;
#43 = VERTEX_POINT ( 'NONE', #46 ) ;
#44 = CARTESIAN_POINT ( 'NONE',  ( 0.07635614734772262768, 0.000000000000000000, 0.000000000000000000 ) ) ;
#45 = AXIS2_PLACEMENT_3D ( 'NONE', #321, #199, #258 ) ;
#46 = CARTESIAN_POINT ( 'NONE',  ( 0.09199999999999999845, 0.000000000000000000, 0.02349999999999964617 ) ) ;
#47 = DIRECTION ( 'NONE',  ( -1.000000000000000000, 0.000000000000000000, 0.000000000000000000 ) ) ;
#48 = DIRECTION ( 'NONE',  ( 0.000000000000000000, 0.000000000000000000, 1.000000000000000000 ) ) ;
#49 = EDGE_CURVE ( 'NONE', #130, #130, #15, .T. ) ;
#50 = FACE_OUTER_BOUND ( 'NONE', #52, .T. ) ;
#51 = CARTESIAN_POINT ( 'NONE',  ( -0.5470000000000000417, -2.372234353398283883E-19, 0.000000000000000000 ) ) ;
#52 = EDGE_LOOP ( 'NONE', ( #35 ) ) ;
#53 = PRESENTATION_LAYER_ASSIGNMENT (  '', '', ( #98 ) ) ;
#54 = STYLED_ITEM ( 'NONE', ( #381 ), #267 ) ;
#55 = AXIS2_PLACEMENT_3D ( 'NONE', #289, #73, #169 ) ;
#56 = EDGE_LOOP ( 'NONE', ( #205 ) ) ;
#57 = DIRECTION ( 'NONE',  ( 0.000000000000000000, 0.000000000000000000, 1.000000000000000000 ) ) ;
#58 = EDGE_LOOP ( 'NONE', ( #178 ) ) ;
#59 = EDGE_LOOP ( 'NONE', ( #206 ) ) ;
#60 = ADVANCED_FACE ( 'NONE', ( #184, #158 ), #371, .T. ) ;
#61 = CIRCLE ( 'NONE', #332, 0.02350000000000000352 ) ;
#62 = DIRECTION ( 'NONE',  ( 0.000000000000000000, 0.06132231097945985143, 0.9981180161564755515 ) ) ;
#63 = VERTEX_POINT ( 'NONE', #307 ) ;
#64 = CYLINDRICAL_SURFACE ( 'NONE', #295, 0.02350000000000000352 ) ;
#65 =( NAMED_UNIT ( * ) PLANE_ANGLE_UNIT ( ) SI_UNIT ( $, .RADIAN. ) );
#66 = CYLINDRICAL_SURFACE ( 'NONE', #20, 0.03300000000000000155 ) ;
#67 = TOROIDAL_SURFACE ( 'NONE', #260, 0.03465000000000000024, 0.01400000000000000203 ) ;
#68 = FACE_OUTER_BOUND ( 'NONE', #56, .T. ) ;
#69 = VERTEX_POINT ( 'NONE', #255 ) ;
#70 = DIRECTION ( 'NONE',  ( 0.000000000000000000, 0.000000000000000000, 1.000000000000000000 ) ) ;
#71 = CARTESIAN_POINT ( 'NONE',  ( 0.06400000000000000133, 0.000000000000000000, 0.02064999999999999822 ) ) ;
#72 = CARTESIAN_POINT ( 'NONE',  ( 0.07635614734772262768, 0.000000000000000000, 0.000000000000000000 ) ) ;
#73 = DIRECTION ( 'NONE',  ( -1.000000000000000000, 0.000000000000000000, 0.000000000000000000 ) ) ;
#74 = DIRECTION ( 'NONE',  ( 0.000000000000000000, 0.000000000000000000, 1.000000000000000000 ) ) ;
#75 = FACE_OUTER_BOUND ( 'NONE', #237, .T. ) ;
#76 = TOROIDAL_SURFACE ( 'NONE', #342, 0.009500000000000001499, 0.01400000000000000203 ) ;
#77 = DIRECTION ( 'NONE',  ( -1.000000000000000000, 0.000000000000000000, 0.000000000000000000 ) ) ;
#78 = ADVANCED_FACE ( 'NONE', ( #282, #254 ), #269, .F. ) ;
#79 = ADVANCED_FACE ( 'NONE', ( #218, #210 ), #34, .T. ) ;
#80 = DIRECTION ( 'NONE',  ( -1.000000000000000000, 0.000000000000000000, 0.000000000000000000 ) ) ;
#81 =( CONVERSION_BASED_UNIT ( 'INCH', #377 ) LENGTH_UNIT ( ) NAMED_UNIT ( #135 ) );
#82 = DIRECTION ( 'NONE',  ( 2.659431311430683907E-20, -0.06132231097945985837, -0.9981180161564755515 ) ) ;
#83 = PRODUCT_DEFINITION_FORMATION_WITH_SPECIFIED_SOURCE ( 'ANY', '', #107, .NOT_KNOWN. ) ;
#84 = CIRCLE ( 'NONE', #325, 0.02064999999999999822 ) ;
#85 =( LENGTH_UNIT ( ) NAMED_UNIT ( * ) SI_UNIT ( $, .METRE. ) );
#86 = CONICAL_SURFACE ( 'NONE', #175, 0.03225000000000000089, 0.7853981633973656784 ) ;
#87 = CARTESIAN_POINT ( 'NONE',  ( 0.000000000000000000, 0.000000000000000000, 0.000000000000000000 ) ) ;
#88 = SHAPE_DEFINITION_REPRESENTATION ( #192, #267 ) ;
#89 = MANIFOLD_SOLID_BREP ( 'Combine1', #33 ) ;
#90 = EDGE_LOOP ( 'NONE', ( #385 ) ) ;
#91 = EDGE_LOOP ( 'NONE', ( #275 ) ) ;
#92 = CIRCLE ( 'NONE', #187, 0.03300000000000000155 ) ;
#93 = TOROIDAL_SURFACE ( 'NONE', #181, 0.006549642857142795593, 0.02995035714285716744 ) ;
#94 = EDGE_LOOP ( 'NONE', ( #330 ) ) ;
#95 = EDGE_CURVE ( 'NONE', #43, #43, #27, .T. ) ;
#96 = ORIENTED_EDGE ( 'NONE', *, *, #354, .F. ) ;
#97 = EDGE_LOOP ( 'NONE', ( #386 ) ) ;
#98 = STYLED_ITEM ( 'NONE', ( #104 ), #89 ) ;
#99 = CARTESIAN_POINT ( 'NONE',  ( -0.5470000000000000417, -2.372234353398283883E-19, 0.000000000000000000 ) ) ;
#100 = VERTEX_POINT ( 'NONE', #2 ) ;
#101 = DIRECTION ( 'NONE',  ( 0.000000000000000000, 0.000000000000000000, 1.000000000000000000 ) ) ;
#102 = DIRECTION ( 'NONE',  ( 0.000000000000000000, 0.000000000000000000, 1.000000000000000000 ) ) ;
#103 = FACE_OUTER_BOUND ( 'NONE', #154, .T. ) ;
#104 = PRESENTATION_STYLE_ASSIGNMENT (( #364 ) ) ;
#105 = VERTEX_POINT ( 'NONE', #196 ) ;
#106 = ADVANCED_FACE ( 'NONE', ( #211, #68 ), #238, .T. ) ;
#107 = PRODUCT ( '100-SD_251R1', '100-SD_251R1', '', ( #351 ) ) ;
#108 = VERTEX_POINT ( 'NONE', #217 ) ;
#109 = FACE_BOUND ( 'NONE', #301, .T. ) ;
#110 = APPLICATION_PROTOCOL_DEFINITION ( 'draft international standard', 'automotive_design', 1998, #149 ) ;
#111 = FACE_OUTER_BOUND ( 'NONE', #58, .T. ) ;
#112 = AXIS2_PLACEMENT_3D ( 'NONE', #200, #115, #116 ) ;
#113 = EDGE_CURVE ( 'NONE', #283, #283, #3, .T. ) ;
#114 = DIRECTION ( 'NONE',  ( 0.000000000000000000, 0.000000000000000000, -1.000000000000000000 ) ) ;
#115 = DIRECTION ( 'NONE',  ( 1.000000000000000000, 4.336808689942014847E-19, -1.303942172654869890E-33 ) ) ;
#116 = DIRECTION ( 'NONE',  ( 0.000000000000000000, -0.06132231097945985143, -0.9981180161564755515 ) ) ;
#117 = EDGE_LOOP ( 'NONE', ( #31 ) ) ;
#118 = ORIENTED_EDGE ( 'NONE', *, *, #244, .F. ) ;
#119 = EDGE_LOOP ( 'NONE', ( #273 ) ) ;
#120 = CIRCLE ( 'NONE', #39, 0.02185314572427259766 ) ;
#121 = ORIENTED_EDGE ( 'NONE', *, *, #40, .F. ) ;
#122 = CARTESIAN_POINT ( 'NONE',  ( -0.5367375989651543833, -2.327728283410697201E-19, 0.000000000000000000 ) ) ;
#123 = DIRECTION ( 'NONE',  ( -1.000000000000000000, -4.336808689942014847E-19, 1.303942172654869890E-33 ) ) ;
#124 = AXIS2_PLACEMENT_3D ( 'NONE', #223, #18, #263 ) ;
#125 = CARTESIAN_POINT ( 'NONE',  ( 0.06967807367386122386, 0.000000000000000000, 0.02185314572427259766 ) ) ;
#126 =( NAMED_UNIT ( * ) PLANE_ANGLE_UNIT ( ) SI_UNIT ( $, .RADIAN. ) );
#127 = VERTEX_POINT ( 'NONE', #337 ) ;
#128 = FACE_OUTER_BOUND ( 'NONE', #91, .T. ) ;
#129 = DIRECTION ( 'NONE',  ( -1.000000000000000000, 0.000000000000000000, 0.000000000000000000 ) ) ;
#130 = VERTEX_POINT ( 'NONE', #248 ) ;
#131 = CARTESIAN_POINT ( 'NONE',  ( 0.6880000000000000560, 0.000000000000000000, 0.000000000000000000 ) ) ;
#132 = ADVANCED_FACE ( 'NONE', ( #109, #257 ), #320, .F. ) ;
#133 = CARTESIAN_POINT ( 'NONE',  ( 0.06967807367386122386, 0.000000000000000000, 0.000000000000000000 ) ) ;
#134 = AXIS2_PLACEMENT_3D ( 'NONE', #136, #336, #41 ) ;
#135 = DIMENSIONAL_EXPONENTS ( 1.000000000000000000, 0.000000000000000000, 0.000000000000000000, 0.000000000000000000, 0.000000000000000000, 0.000000000000000000, 0.000000000000000000 ) ;
#136 = CARTESIAN_POINT ( 'NONE',  ( 0.000000000000000000, -1.777125317778576441E-34, -7.132563684422138189E-34 ) ) ;
#137 = FACE_OUTER_BOUND ( 'NONE', #300, .T. ) ;
#138 = SURFACE_SIDE_STYLE ('',( #172 ) ) ;
#139 = FACE_OUTER_BOUND ( 'NONE', #119, .T. ) ;
#140 = AXIS2_PLACEMENT_3D ( 'NONE', #162, #285, #13 ) ;
#141 = DIRECTION ( 'NONE',  ( 0.000000000000000000, 0.000000000000000000, 1.000000000000000000 ) ) ;
#142 = DIRECTION ( 'NONE',  ( -1.000000000000000000, 0.000000000000000000, 0.000000000000000000 ) ) ;
#143 = APPLICATION_PROTOCOL_DEFINITION ( 'draft international standard', 'automotive_design', 1998, #5 ) ;
#144 = CARTESIAN_POINT ( 'NONE',  ( -0.5470000000000000417, -2.372234353398283883E-19, 0.000000000000000000 ) ) ;
#145 = FILL_AREA_STYLE ('',( #166 ) ) ;
#146 = ORIENTED_EDGE ( 'NONE', *, *, #150, .F. ) ;
#147 =( GEOMETRIC_REPRESENTATION_CONTEXT ( 3 ) GLOBAL_UNCERTAINTY_ASSIGNED_CONTEXT ( ( #335 ) ) GLOBAL_UNIT_ASSIGNED_CONTEXT ( ( #216, #126, #163 ) ) REPRESENTATION_CONTEXT ( 'NONE', 'WORKASPACE' ) );
#148 = ORIENTED_EDGE ( 'NONE', *, *, #244, .T. ) ;
#149 = APPLICATION_CONTEXT ( 'automotive_design' ) ;
#150 = EDGE_CURVE ( 'NONE', #105, #105, #357, .T. ) ;
#151 = ORIENTED_EDGE ( 'NONE', *, *, #40, .T. ) ;
#152 = ADVANCED_FACE ( 'NONE', ( #139 ), #296, .F. ) ;
#153 = EDGE_LOOP ( 'NONE', ( #148 ) ) ;
#154 = EDGE_LOOP ( 'NONE', ( #118 ) ) ;
#155 = CARTESIAN_POINT ( 'NONE',  ( 0.09199999999999999845, 0.000000000000000000, 0.000000000000000000 ) ) ;
#156 = AXIS2_PLACEMENT_3D ( 'NONE', #155, #4, #101 ) ;
#157 = AXIS2_PLACEMENT_3D ( 'NONE', #8, #129, #11 ) ;
#158 = FACE_OUTER_BOUND ( 'NONE', #90, .T. ) ;
#159 = ADVANCED_FACE ( 'NONE', ( #384, #137 ), #76, .T. ) ;
#160 = DIRECTION ( 'NONE',  ( -1.000000000000000000, 0.000000000000000000, 0.000000000000000000 ) ) ;
#161 =( NAMED_UNIT ( * ) SI_UNIT ( $, .STERADIAN. ) SOLID_ANGLE_UNIT ( ) );
#162 = CARTESIAN_POINT ( 'NONE',  ( 0.6880000000000000560, 0.000000000000000000, 0.000000000000000000 ) ) ;
#163 =( NAMED_UNIT ( * ) SI_UNIT ( $, .STERADIAN. ) SOLID_ANGLE_UNIT ( ) );
#164 = CARTESIAN_POINT ( 'NONE',  ( 0.7161000000000000698, 0.000000000000000000, 0.03300000000000000155 ) ) ;
#165 = CARTESIAN_POINT ( 'NONE',  ( 1.005000000000000115, 0.000000000000000000, 0.000000000000000000 ) ) ;
#166 = FILL_AREA_STYLE_COLOUR ( '', #368 ) ;
#167 = CARTESIAN_POINT ( 'NONE',  ( 0.07067807367386122475, 0.000000000000000000, 0.000000000000000000 ) ) ;
#168 = DIRECTION ( 'NONE',  ( -1.000000000000000000, 0.000000000000000000, 0.000000000000000000 ) ) ;
#169 = DIRECTION ( 'NONE',  ( 0.000000000000000000, 0.000000000000000000, 1.000000000000000000 ) ) ;
#170 = CIRCLE ( 'NONE', #252, 0.01242500000000000895 ) ;
#171 = DIRECTION ( 'NONE',  ( 0.000000000000000000, 0.000000000000000000, 1.000000000000000000 ) ) ;
#172 = SURFACE_STYLE_FILL_AREA ( #145 ) ;
#173 = EDGE_CURVE ( 'NONE', #363, #363, #29, .T. ) ;
#174 = ORIENTED_EDGE ( 'NONE', *, *, #36, .F. ) ;
#175 = AXIS2_PLACEMENT_3D ( 'NONE', #165, #80, #48 ) ;
#176 = CARTESIAN_POINT ( 'NONE',  ( 0.000000000000000000, 0.000000000000000000, 0.000000000000000000 ) ) ;
#177 = EDGE_LOOP ( 'NONE', ( #146 ) ) ;
#178 = ORIENTED_EDGE ( 'NONE', *, *, #338, .F. ) ;
#179 = EDGE_LOOP ( 'NONE', ( #358 ) ) ;
#180 = EDGE_LOOP ( 'NONE', ( #387 ) ) ;
#181 = AXIS2_PLACEMENT_3D ( 'NONE', #21, #142, #265 ) ;
#182 = CYLINDRICAL_SURFACE ( 'NONE', #288, 0.03225000000000000089 ) ;
#183 = SURFACE_SIDE_STYLE ('',( #1 ) ) ;
#184 = FACE_OUTER_BOUND ( 'NONE', #97, .T. ) ;
#185 = DIRECTION ( 'NONE',  ( 0.000000000000000000, 0.000000000000000000, 1.000000000000000000 ) ) ;
#186 = CARTESIAN_POINT ( 'NONE',  ( 1.004250000000000087, 0.000000000000000000, 0.000000000000000000 ) ) ;
#187 = AXIS2_PLACEMENT_3D ( 'NONE', #308, #373, #281 ) ;
#188 = AXIS2_PLACEMENT_3D ( 'NONE', #167, #380, #24 ) ;
#189 = ADVANCED_FACE ( 'NONE', ( #341, #316 ), #86, .T. ) ;
#190 = CARTESIAN_POINT ( 'NONE',  ( 0.06400000000000000133, 0.000000000000000000, 0.000000000000000000 ) ) ;
#191 = VERTEX_POINT ( 'NONE', #125 ) ;
#192 = PRODUCT_DEFINITION_SHAPE ( 'NONE', 'NONE',  #350 ) ;
#193 = DIRECTION ( 'NONE',  ( 1.000000000000000000, 0.000000000000000000, 0.000000000000000000 ) ) ;
#194 = DIRECTION ( 'NONE',  ( -1.000000000000000000, 0.000000000000000000, 0.000000000000000000 ) ) ;
#195 = DIRECTION ( 'NONE',  ( 1.000000000000000000, 4.336808689942019662E-19, 1.998152317301757198E-33 ) ) ;
#196 = CARTESIAN_POINT ( 'NONE',  ( 1.080000000000000071, 0.000000000000000000, 0.03225000000000000089 ) ) ;
#197 = CARTESIAN_POINT ( 'NONE',  ( 1.005000000000000115, 0.000000000000000000, 0.000000000000000000 ) ) ;
#198 = DIRECTION ( 'NONE',  ( 0.000000000000000000, 0.000000000000000000, 1.000000000000000000 ) ) ;
#199 = DIRECTION ( 'NONE',  ( -1.000000000000000000, 0.000000000000000000, 0.000000000000000000 ) ) ;
#200 = CARTESIAN_POINT ( 'NONE',  ( -0.5367375989651543833, -2.327728283410697201E-19, 0.000000000000000000 ) ) ;
#201 = MECHANICAL_DESIGN_GEOMETRIC_PRESENTATION_REPRESENTATION (  '', ( #98 ), #147 ) ;
#202 = ORIENTED_EDGE ( 'NONE', *, *, #319, .F. ) ;
#203 = TOROIDAL_SURFACE ( 'NONE', #55, 0.01350000551334616314, 0.01900000000000000300 ) ;
#204 = DIRECTION ( 'NONE',  ( 1.000000000000000000, 0.000000000000000000, 0.000000000000000000 ) ) ;
#205 = ORIENTED_EDGE ( 'NONE', *, *, #49, .T. ) ;
#206 = ORIENTED_EDGE ( 'NONE', *, *, #95, .F. ) ;
#207 = EDGE_LOOP ( 'NONE', ( #303 ) ) ;
#208 = EDGE_LOOP ( 'NONE', ( #272 ) ) ;
#209 =( GEOMETRIC_REPRESENTATION_CONTEXT ( 3 ) GLOBAL_UNCERTAINTY_ASSIGNED_CONTEXT ( ( #286 ) ) GLOBAL_UNIT_ASSIGNED_CONTEXT ( ( #212, #65, #161 ) ) REPRESENTATION_CONTEXT ( 'NONE', 'WORKASPACE' ) );
#210 = FACE_OUTER_BOUND ( 'NONE', #298, .T. ) ;
#211 = FACE_BOUND ( 'NONE', #329, .T. ) ;
#212 =( CONVERSION_BASED_UNIT ( 'INCH', #16 ) LENGTH_UNIT ( ) NAMED_UNIT ( #344 ) );
#213 = EDGE_CURVE ( 'NONE', #100, #100, #280, .T. ) ;
#214 = DIRECTION ( 'NONE',  ( 1.000000000000000000, 4.336808689942014847E-19, -1.303942172654869890E-33 ) ) ;
#215 = VERTEX_POINT ( 'NONE', #279 ) ;
#216 =( CONVERSION_BASED_UNIT ( 'INCH', #239 ) LENGTH_UNIT ( ) NAMED_UNIT ( #17 ) );
#217 = CARTESIAN_POINT ( 'NONE',  ( 1.004250000000000087, 0.000000000000000000, 0.03300000000000000155 ) ) ;
#218 = FACE_BOUND ( 'NONE', #32, .T. ) ;
#219 = VERTEX_POINT ( 'NONE', #312 ) ;
#220 = DIRECTION ( 'NONE',  ( -1.000000000000000000, 0.000000000000000000, 0.000000000000000000 ) ) ;
#221 = DIRECTION ( 'NONE',  ( -1.000000000000000000, 0.000000000000000000, 0.000000000000000000 ) ) ;
#222 = AXIS2_PLACEMENT_3D ( 'NONE', #292, #77, #141 ) ;
#223 = CARTESIAN_POINT ( 'NONE',  ( 1.080000000000000071, 0.000000000000000000, 0.000000000000000000 ) ) ;
#224 = DIRECTION ( 'NONE',  ( 1.000000000000000000, 0.000000000000000000, 0.000000000000000000 ) ) ;
#225 = ADVANCED_FACE ( 'NONE', ( #297, #346 ), #376, .T. ) ;
#226 = DIRECTION ( 'NONE',  ( 1.000000000000000000, 0.000000000000000000, 0.000000000000000000 ) ) ;
#227 = AXIS2_PLACEMENT_3D ( 'NONE', #243, #160, #14 ) ;
#228 = COLOUR_RGB ( '',0.7529411764705882248, 0.7529411764705882248, 0.7529411764705882248 ) ;
#229 = EDGE_LOOP ( 'NONE', ( #271 ) ) ;
#230 = ORIENTED_EDGE ( 'NONE', *, *, #150, .T. ) ;
#231 = CIRCLE ( 'NONE', #140, 0.03300000000000000155 ) ;
#232 = MECHANICAL_DESIGN_GEOMETRIC_PRESENTATION_REPRESENTATION (  '', ( #54 ), #251 ) ;
#233 = ORIENTED_EDGE ( 'NONE', *, *, #319, .T. ) ;
#234 = EDGE_LOOP ( 'NONE', ( #202 ) ) ;
#235 = UNCERTAINTY_MEASURE_WITH_UNIT (LENGTH_MEASURE( 1.000000000000000082E-05 ), #81, 'distance_accuracy_value', 'NONE');
#236 = ADVANCED_FACE ( 'NONE', ( #75, #374 ), #203, .T. ) ;
#237 = EDGE_LOOP ( 'NONE', ( #360 ) ) ;
#238 = CONICAL_SURFACE ( 'NONE', #188, 0.02229685427572740061, 0.4176096532003674144 ) ;
#239 = LENGTH_MEASURE_WITH_UNIT ( LENGTH_MEASURE( 0.02539999999999999897 ), #367 );
#240 = CIRCLE ( 'NONE', #310, 0.03300000000000000155 ) ;
#241 = VERTEX_POINT ( 'NONE', #362 ) ;
#242 = AXIS2_PLACEMENT_3D ( 'NONE', #131, #247, #306 ) ;
#243 = CARTESIAN_POINT ( 'NONE',  ( 0.07067807367386122475, 0.000000000000000000, 0.000000000000000000 ) ) ;
#244 = EDGE_CURVE ( 'NONE', #215, #215, #379, .T. ) ;
#245 = VERTEX_POINT ( 'NONE', #164 ) ;
#246 = CARTESIAN_POINT ( 'NONE',  ( 0.000000000000000000, 0.000000000000000000, 0.000000000000000000 ) ) ;
#247 = DIRECTION ( 'NONE',  ( 1.000000000000000000, 0.000000000000000000, 0.000000000000000000 ) ) ;
#248 = CARTESIAN_POINT ( 'NONE',  ( 0.07067807367386122475, 0.000000000000000000, 0.02229685427572740061 ) ) ;
#249 = DIRECTION ( 'NONE',  ( 1.000000000000000000, 0.000000000000000000, 0.000000000000000000 ) ) ;
#250 = FILL_AREA_STYLE_COLOUR ( '', #228 ) ;
#251 =( GEOMETRIC_REPRESENTATION_CONTEXT ( 3 ) GLOBAL_UNCERTAINTY_ASSIGNED_CONTEXT ( ( #235 ) ) GLOBAL_UNIT_ASSIGNED_CONTEXT ( ( #81, #25, #347 ) ) REPRESENTATION_CONTEXT ( 'NONE', 'WORKASPACE' ) );
#252 = AXIS2_PLACEMENT_3D ( 'NONE', #122, #123, #62 ) ;
#253 = DIRECTION ( 'NONE',  ( -1.000000000000000000, 0.000000000000000000, 0.000000000000000000 ) ) ;
#254 = FACE_OUTER_BOUND ( 'NONE', #179, .T. ) ;
#255 = CARTESIAN_POINT ( 'NONE',  ( 0.6880000000000000560, 0.000000000000000000, 0.03300000000000000155 ) ) ;
#256 = PRODUCT_DEFINITION_CONTEXT ( 'detailed design', #5, 'design' ) ;
#257 = FACE_OUTER_BOUND ( 'NONE', #359, .T. ) ;
#258 = DIRECTION ( 'NONE',  ( 0.000000000000000000, 0.000000000000000000, 1.000000000000000000 ) ) ;
#259 = ORIENTED_EDGE ( 'NONE', *, *, #338, .T. ) ;
#260 = AXIS2_PLACEMENT_3D ( 'NONE', #339, #194, #372 ) ;
#261 = AXIS2_PLACEMENT_3D ( 'NONE', #176, #204, #57 ) ;
#262 = DIRECTION ( 'NONE',  ( 0.000000000000000000, 0.000000000000000000, 1.000000000000000000 ) ) ;
#263 = DIRECTION ( 'NONE',  ( 0.000000000000000000, 0.000000000000000000, 1.000000000000000000 ) ) ;
#264 = ADVANCED_FACE ( 'NONE', ( #19 ), #348, .F. ) ;
#265 = DIRECTION ( 'NONE',  ( 0.000000000000000000, 0.000000000000000000, 1.000000000000000000 ) ) ;
#266 = DIRECTION ( 'NONE',  ( -1.000000000000000000, -4.336808689942014847E-19, 1.543271059696420034E-33 ) ) ;
#267 = ADVANCED_BREP_SHAPE_REPRESENTATION ( '100-SD_251R1', ( #89, #343 ), #209 ) ;
#268 = CIRCLE ( 'NONE', #134, 0.01242500000000000028 ) ;
#269 = TOROIDAL_SURFACE ( 'NONE', #157, 0.03749999999999999861, 0.01399999999999966376 ) ;
#270 = ORIENTED_EDGE ( 'NONE', *, *, #213, .T. ) ;
#271 = ORIENTED_EDGE ( 'NONE', *, *, #7, .T. ) ;
#272 = ORIENTED_EDGE ( 'NONE', *, *, #9, .T. ) ;
#273 = ORIENTED_EDGE ( 'NONE', *, *, #113, .T. ) ;
#274 = ADVANCED_FACE ( 'NONE', ( #375, #111 ), #93, .T. ) ;
#275 = ORIENTED_EDGE ( 'NONE', *, *, #327, .F. ) ;
#276 = FACE_OUTER_BOUND ( 'NONE', #234, .T. ) ;
#277 = AXIS2_PLACEMENT_3D ( 'NONE', #144, #266, #345 ) ;
#278 = DIRECTION ( 'NONE',  ( 0.000000000000000000, 0.000000000000000000, 1.000000000000000000 ) ) ;
#279 = CARTESIAN_POINT ( 'NONE',  ( 1.005000000000000115, 0.000000000000000000, 0.03225000000000000089 ) ) ;
#280 = CIRCLE ( 'NONE', #222, 0.02064999999999999822 ) ;
#281 = DIRECTION ( 'NONE',  ( 0.000000000000000000, 0.000000000000000000, 1.000000000000000000 ) ) ;
#282 = FACE_OUTER_BOUND ( 'NONE', #59, .T. ) ;
#283 = VERTEX_POINT ( 'NONE', #366 ) ;
#284 = DIRECTION ( 'NONE',  ( 0.000000000000000000, 0.06132231097945985143, 0.9981180161564755515 ) ) ;
#285 = DIRECTION ( 'NONE',  ( -1.000000000000000000, 0.000000000000000000, 0.000000000000000000 ) ) ;
#286 = UNCERTAINTY_MEASURE_WITH_UNIT (LENGTH_MEASURE( 1.000000000000000082E-05 ), #212, 'distance_accuracy_value', 'NONE');
#287 = DIRECTION ( 'NONE',  ( -1.000000000000000000, 0.000000000000000000, 0.000000000000000000 ) ) ;
#288 = AXIS2_PLACEMENT_3D ( 'NONE', #87, #378, #262 ) ;
#289 = CARTESIAN_POINT ( 'NONE',  ( 0.1146495091478950817, 0.000000000000000000, 0.000000000000000000 ) ) ;
#290 = CARTESIAN_POINT ( 'NONE',  ( 0.1146329403047135903, 0.000000000000000000, 0.000000000000000000 ) ) ;
#291 = CARTESIAN_POINT ( 'NONE',  ( 0.000000000000000000, 0.000000000000000000, 0.000000000000000000 ) ) ;
#292 = CARTESIAN_POINT ( 'NONE',  ( 0.000000000000000000, 0.000000000000000000, 0.000000000000000000 ) ) ;
#293 = ADVANCED_FACE ( 'NONE', ( #382, #50 ), #356, .T. ) ;
#294 = CIRCLE ( 'NONE', #355, 0.02731818415717693002 ) ;
#295 = AXIS2_PLACEMENT_3D ( 'NONE', #309, #193, #42 ) ;
#296 = PLANE ( 'NONE',  #369 ) ;
#297 = FACE_BOUND ( 'NONE', #117, .T. ) ;
#298 = EDGE_LOOP ( 'NONE', ( #259 ) ) ;
#299 = AXIS2_PLACEMENT_3D ( 'NONE', #340, #226, #114 ) ;
#300 = EDGE_LOOP ( 'NONE', ( #331 ) ) ;
#301 = EDGE_LOOP ( 'NONE', ( #174 ) ) ;
#302 = ADVANCED_FACE ( 'NONE', ( #333, #103 ), #182, .T. ) ;
#303 = ORIENTED_EDGE ( 'NONE', *, *, #95, .T. ) ;
#304 = ORIENTED_EDGE ( 'NONE', *, *, #327, .T. ) ;
#305 = AXIS2_PLACEMENT_3D ( 'NONE', #197, #47, #318 ) ;
#306 = DIRECTION ( 'NONE',  ( 0.000000000000000000, 0.000000000000000000, -1.000000000000000000 ) ) ;
#307 = CARTESIAN_POINT ( 'NONE',  ( -0.5367375989651543833, 0.0007619297139197890112, 0.01240161635074421738 ) ) ;
#308 = CARTESIAN_POINT ( 'NONE',  ( 0.7161000000000000698, 0.000000000000000000, 0.000000000000000000 ) ) ;
#309 = CARTESIAN_POINT ( 'NONE',  ( 0.000000000000000000, 0.000000000000000000, 0.000000000000000000 ) ) ;
#310 = AXIS2_PLACEMENT_3D ( 'NONE', #186, #287, #70 ) ;
#311 = DIRECTION ( 'NONE',  ( -1.000000000000000000, 0.000000000000000000, 0.000000000000000000 ) ) ;
#312 = CARTESIAN_POINT ( 'NONE',  ( 0.000000000000000000, -1.777125317778576441E-34, -0.01242500000000000028 ) ) ;
#313 = DIRECTION ( 'NONE',  ( 0.000000000000000000, 0.000000000000000000, 1.000000000000000000 ) ) ;
#314 = FILL_AREA_STYLE ('',( #250 ) ) ;
#315 = FACE_OUTER_BOUND ( 'NONE', #389, .T. ) ;
#316 = FACE_OUTER_BOUND ( 'NONE', #388, .T. ) ;
#317 = CARTESIAN_POINT ( 'NONE',  ( 0.1146329403047135903, 0.000000000000000000, 0.03249999828896153742 ) ) ;
#318 = DIRECTION ( 'NONE',  ( 0.000000000000000000, 0.000000000000000000, 1.000000000000000000 ) ) ;
#319 = EDGE_CURVE ( 'NONE', #127, #127, #61, .T. ) ;
#320 = PLANE ( 'NONE',  #299 ) ;
#321 = CARTESIAN_POINT ( 'NONE',  ( 1.080000000000000071, 0.03225000000000000089, 0.000000000000000000 ) ) ;
#322 = SURFACE_STYLE_USAGE ( .BOTH. , #138 ) ;
#323 = DIRECTION ( 'NONE',  ( 0.000000000000000000, 0.000000000000000000, 1.000000000000000000 ) ) ;
#324 = EDGE_LOOP ( 'NONE', ( #230 ) ) ;
#325 = AXIS2_PLACEMENT_3D ( 'NONE', #190, #311, #278 ) ;
#326 = ORIENTED_EDGE ( 'NONE', *, *, #9, .F. ) ;
#327 = EDGE_CURVE ( 'NONE', #245, #245, #92, .T. ) ;
#328 = ADVANCED_FACE ( 'NONE', ( #6, #128 ), #66, .T. ) ;
#329 = EDGE_LOOP ( 'NONE', ( #96 ) ) ;
#330 = ORIENTED_EDGE ( 'NONE', *, *, #365, .F. ) ;
#331 = ORIENTED_EDGE ( 'NONE', *, *, #49, .F. ) ;
#332 = AXIS2_PLACEMENT_3D ( 'NONE', #72, #220, #185 ) ;
#333 = FACE_OUTER_BOUND ( 'NONE', #324, .T. ) ;
#334 = FACE_OUTER_BOUND ( 'NONE', #180, .T. ) ;
#335 = UNCERTAINTY_MEASURE_WITH_UNIT (LENGTH_MEASURE( 1.000000000000000082E-05 ), #216, 'distance_accuracy_value', 'NONE');
#336 = DIRECTION ( 'NONE',  ( -1.000000000000000000, -0.000000000000000000, -0.000000000000000000 ) ) ;
#337 = CARTESIAN_POINT ( 'NONE',  ( 0.07635614734772262768, 0.000000000000000000, 0.02350000000000000352 ) ) ;
#338 = EDGE_CURVE ( 'NONE', #69, #69, #231, .T. ) ;
#339 = CARTESIAN_POINT ( 'NONE',  ( 0.06400000000000000133, 0.000000000000000000, 0.000000000000000000 ) ) ;
#340 = CARTESIAN_POINT ( 'NONE',  ( -8.670415995516457040E-19, 0.02064999999999999822, 0.000000000000000000 ) ) ;
#341 = FACE_BOUND ( 'NONE', #153, .T. ) ;
#342 = AXIS2_PLACEMENT_3D ( 'NONE', #44, #221, #323 ) ;
#343 = AXIS2_PLACEMENT_3D ( 'NONE', #291, #171, #224 ) ;
#344 = DIMENSIONAL_EXPONENTS ( 1.000000000000000000, 0.000000000000000000, 0.000000000000000000, 0.000000000000000000, 0.000000000000000000, 0.000000000000000000, 0.000000000000000000 ) ;
#345 = DIRECTION ( 'NONE',  ( 0.000000000000000000, 0.06132231097945986531, 0.9981180161564755515 ) ) ;
#346 = FACE_OUTER_BOUND ( 'NONE', #229, .T. ) ;
#347 =( NAMED_UNIT ( * ) SI_UNIT ( $, .STERADIAN. ) SOLID_ANGLE_UNIT ( ) );
#348 = PLANE ( 'NONE',  #45 ) ;
#349 = AXIS2_PLACEMENT_3D ( 'NONE', #99, #214, #284 ) ;
#350 = PRODUCT_DEFINITION ( 'UNKNOWN', '', #83, #256 ) ;
#351 = PRODUCT_CONTEXT ( 'NONE', #149, 'mechanical' ) ;
#352 = EDGE_LOOP ( 'NONE', ( #233 ) ) ;
#353 = EDGE_LOOP ( 'NONE', ( #304 ) ) ;
#354 = EDGE_CURVE ( 'NONE', #191, #191, #120, .T. ) ;
#355 = AXIS2_PLACEMENT_3D ( 'NONE', #12, #370, #102 ) ;
#356 = CYLINDRICAL_SURFACE ( 'NONE', #261, 0.02064999999999999822 ) ;
#357 = CIRCLE ( 'NONE', #124, 0.03225000000000000089 ) ;
#358 = ORIENTED_EDGE ( 'NONE', *, *, #365, .T. ) ;
#359 = EDGE_LOOP ( 'NONE', ( #270 ) ) ;
#360 = ORIENTED_EDGE ( 'NONE', *, *, #173, .T. ) ;
#361 = AXIS2_PLACEMENT_3D ( 'NONE', #290, #168, #198 ) ;
#362 = CARTESIAN_POINT ( 'NONE',  ( 0.1016088826688043290, 0.000000000000000000, 0.02731818415717693002 ) ) ;
#363 = VERTEX_POINT ( 'NONE', #317 ) ;
#364 = SURFACE_STYLE_USAGE ( .BOTH. , #183 ) ;
#365 = EDGE_CURVE ( 'NONE', #241, #241, #294, .T. ) ;
#366 = CARTESIAN_POINT ( 'NONE',  ( -0.5470000000000000417, 0.0003985950213664891050, 0.006487767105017095033 ) ) ;
#367 =( LENGTH_UNIT ( ) NAMED_UNIT ( * ) SI_UNIT ( $, .METRE. ) );
#368 = COLOUR_RGB ( '',0.7529411764705882248, 0.7529411764705882248, 0.7529411764705882248 ) ;
#369 = AXIS2_PLACEMENT_3D ( 'NONE', #51, #195, #82 ) ;
#370 = DIRECTION ( 'NONE',  ( -1.000000000000000000, 0.000000000000000000, 0.000000000000000000 ) ) ;
#371 = CYLINDRICAL_SURFACE ( 'NONE', #349, 0.01242500000000000895 ) ;
#372 = DIRECTION ( 'NONE',  ( 0.000000000000000000, 0.000000000000000000, 1.000000000000000000 ) ) ;
#373 = DIRECTION ( 'NONE',  ( -1.000000000000000000, 0.000000000000000000, 0.000000000000000000 ) ) ;
#374 = FACE_OUTER_BOUND ( 'NONE', #94, .T. ) ;
#375 = FACE_OUTER_BOUND ( 'NONE', #353, .T. ) ;
#376 = CONICAL_SURFACE ( 'NONE', #112, 0.01242500000000000895, 0.5235987755982992597 ) ;
#377 = LENGTH_MEASURE_WITH_UNIT ( LENGTH_MEASURE( 0.02539999999999999897 ), #85 );
#378 = DIRECTION ( 'NONE',  ( 1.000000000000000000, 0.000000000000000000, 0.000000000000000000 ) ) ;
#379 = CIRCLE ( 'NONE', #305, 0.03225000000000000089 ) ;
#380 = DIRECTION ( 'NONE',  ( 1.000000000000000000, 0.000000000000000000, 0.000000000000000000 ) ) ;
#381 = PRESENTATION_STYLE_ASSIGNMENT (( #322 ) ) ;
#382 = FACE_OUTER_BOUND ( 'NONE', #30, .T. ) ;
#383 = ADVANCED_FACE ( 'NONE', ( #315, #334 ), #67, .F. ) ;
#384 = FACE_OUTER_BOUND ( 'NONE', #352, .T. ) ;
#385 = ORIENTED_EDGE ( 'NONE', *, *, #36, .T. ) ;
#386 = ORIENTED_EDGE ( 'NONE', *, *, #7, .F. ) ;
#387 = ORIENTED_EDGE ( 'NONE', *, *, #354, .T. ) ;
#388 = EDGE_LOOP ( 'NONE', ( #326 ) ) ;
#389 = EDGE_LOOP ( 'NONE', ( #121 ) ) ;
ENDSEC;
END-ISO-10303-21;
