ISO-10303-21;
HEADER;
FILE_DESCRIPTION (( 'STEP AP214' ),
    '1' );
FILE_NAME ('100-SD_251R3.STEP',
    '2022-12-27T13:23:38',
    ( '' ),
    ( '' ),
    'SwSTEP 2.0',
    'SolidWorks 2020',
    '' );
FILE_SCHEMA (( 'AUTOMOTIVE_DESIGN' ));
ENDSEC;

DATA;
#1 = ADVANCED_FACE ( 'NONE', ( #190, #220 ), #365, .T. ) ;
#2 = CARTESIAN_POINT ( 'NONE',  ( -0.2057375989651543391, 0.0007619297139197891196, 0.01240161635074421738 ) ) ;
#3 = APPLICATION_PROTOCOL_DEFINITION ( 'draft international standard', 'automotive_design', 1998, #355 ) ;
#4 = DIRECTION ( 'NONE',  ( 0.000000000000000000, 0.000000000000000000, 1.000000000000000000 ) ) ;
#5 = CIRCLE ( 'NONE', #122, 0.02350000000000000352 ) ;
#6 = CARTESIAN_POINT ( 'NONE',  ( 1.080000000000000071, 0.000000000000000000, 0.03225000000000000089 ) ) ;
#7 = DIRECTION ( 'NONE',  ( 0.000000000000000000, 0.000000000000000000, 1.000000000000000000 ) ) ;
#8 = CARTESIAN_POINT ( 'NONE',  ( 0.000000000000000000, -1.184750211852384294E-34, -0.01242500000000000028 ) ) ;
#9 = EDGE_CURVE ( 'NONE', #334, #334, #342, .T. ) ;
#10 = EDGE_LOOP ( 'NONE', ( #129 ) ) ;
#11 = ORIENTED_EDGE ( 'NONE', *, *, #234, .F. ) ;
#12 = VERTEX_POINT ( 'NONE', #312 ) ;
#13 = ORIENTED_EDGE ( 'NONE', *, *, #222, .T. ) ;
#14 = DIRECTION ( 'NONE',  ( 0.000000000000000000, 0.000000000000000000, 1.000000000000000000 ) ) ;
#15 = AXIS2_PLACEMENT_3D ( 'NONE', #149, #269, #53 ) ;
#16 = ORIENTED_EDGE ( 'NONE', *, *, #209, .F. ) ;
#17 = EDGE_CURVE ( 'NONE', #241, #241, #178, .T. ) ;
#18 = EDGE_LOOP ( 'NONE', ( #31 ) ) ;
#19 = DIRECTION ( 'NONE',  ( 0.000000000000000000, 0.000000000000000000, 1.000000000000000000 ) ) ;
#20 = FACE_OUTER_BOUND ( 'NONE', #131, .T. ) ;
#21 = AXIS2_PLACEMENT_3D ( 'NONE', #143, #42, #19 ) ;
#22 = DIRECTION ( 'NONE',  ( 0.000000000000000000, 0.000000000000000000, 1.000000000000000000 ) ) ;
#23 = ADVANCED_FACE ( 'NONE', ( #343, #333 ), #100, .T. ) ;
#24 = CARTESIAN_POINT ( 'NONE',  ( 0.000000000000000000, -1.184750211852384294E-34, -2.816515092934518767E-34 ) ) ;
#25 = DIRECTION ( 'NONE',  ( 0.000000000000000000, 0.000000000000000000, -1.000000000000000000 ) ) ;
#26 = CIRCLE ( 'NONE', #359, 0.02229685427572740061 ) ;
#27 = DIRECTION ( 'NONE',  ( 0.000000000000000000, 0.000000000000000000, 1.000000000000000000 ) ) ;
#28 = DIRECTION ( 'NONE',  ( 0.000000000000000000, 0.000000000000000000, 1.000000000000000000 ) ) ;
#29 = AXIS2_PLACEMENT_3D ( 'NONE', #362, #90, #64 ) ;
#30 = CLOSED_SHELL ( 'NONE', ( #229, #77, #255, #262, #205, #384, #344, #43, #321, #189, #93, #239, #49, #23, #1, #138, #142 ) ) ;
#31 = ORIENTED_EDGE ( 'NONE', *, *, #329, .F. ) ;
#32 = VERTEX_POINT ( 'NONE', #6 ) ;
#33 = FACE_BOUND ( 'NONE', #165, .T. ) ;
#34 = CARTESIAN_POINT ( 'NONE',  ( 0.6880000000000000560, 0.000000000000000000, 0.03300000000000000155 ) ) ;
#35 = DIRECTION ( 'NONE',  ( 1.000000000000000000, 4.336808689942014847E-19, -1.303942172654869890E-33 ) ) ;
#36 = ORIENTED_EDGE ( 'NONE', *, *, #293, .F. ) ;
#37 = SURFACE_STYLE_USAGE ( .BOTH. , #280 ) ;
#38 = ORIENTED_EDGE ( 'NONE', *, *, #59, .T. ) ;
#39 = TOROIDAL_SURFACE ( 'NONE', #267, 0.03465000000000000024, 0.01400000000000000203 ) ;
#40 =( LENGTH_UNIT ( ) NAMED_UNIT ( * ) SI_UNIT ( $, .METRE. ) );
#41 = CARTESIAN_POINT ( 'NONE',  ( 0.1016088826688043290, 0.000000000000000000, 0.000000000000000000 ) ) ;
#42 = DIRECTION ( 'NONE',  ( -1.000000000000000000, 0.000000000000000000, 0.000000000000000000 ) ) ;
#43 = ADVANCED_FACE ( 'NONE', ( #316, #311 ), #387, .F. ) ;
#44 = AXIS2_PLACEMENT_3D ( 'NONE', #124, #284, #247 ) ;
#45 =( GEOMETRIC_REPRESENTATION_CONTEXT ( 3 ) GLOBAL_UNCERTAINTY_ASSIGNED_CONTEXT ( ( #67 ) ) GLOBAL_UNIT_ASSIGNED_CONTEXT ( ( #356, #248, #61 ) ) REPRESENTATION_CONTEXT ( 'NONE', 'WORKASPACE' ) );
#46 = DIRECTION ( 'NONE',  ( 1.000000000000000000, 0.000000000000000000, 0.000000000000000000 ) ) ;
#47 = CARTESIAN_POINT ( 'NONE',  ( 0.6880000000000000560, 0.000000000000000000, 0.000000000000000000 ) ) ;
#48 = FACE_OUTER_BOUND ( 'NONE', #330, .T. ) ;
#49 = ADVANCED_FACE ( 'NONE', ( #186, #158 ), #188, .T. ) ;
#50 = DIRECTION ( 'NONE',  ( -1.000000000000000000, 0.000000000000000000, 0.000000000000000000 ) ) ;
#51 = CIRCLE ( 'NONE', #345, 0.03225000000000000089 ) ;
#52 = APPLICATION_CONTEXT ( 'automotive_design' ) ;
#53 = DIRECTION ( 'NONE',  ( 0.000000000000000000, 0.000000000000000000, 1.000000000000000000 ) ) ;
#54 = FACE_OUTER_BOUND ( 'NONE', #99, .T. ) ;
#55 = COLOUR_RGB ( '',0.7529411764705882248, 0.7529411764705882248, 0.7529411764705882248 ) ;
#56 = EDGE_LOOP ( 'NONE', ( #16 ) ) ;
#57 = FILL_AREA_STYLE ('',( #331 ) ) ;
#58 = EDGE_LOOP ( 'NONE', ( #315 ) ) ;
#59 = EDGE_CURVE ( 'NONE', #226, #226, #242, .T. ) ;
#60 = CARTESIAN_POINT ( 'NONE',  ( 0.6880000000000000560, 0.000000000000000000, 0.000000000000000000 ) ) ;
#61 =( NAMED_UNIT ( * ) SI_UNIT ( $, .STERADIAN. ) SOLID_ANGLE_UNIT ( ) );
#62 = AXIS2_PLACEMENT_3D ( 'NONE', #60, #92, #309 ) ;
#63 = CARTESIAN_POINT ( 'NONE',  ( -8.670415995516457040E-19, 0.02064999999999999822, 0.000000000000000000 ) ) ;
#64 = DIRECTION ( 'NONE',  ( 0.000000000000000000, 0.06132231097945985143, 0.9981180161564755515 ) ) ;
#65 = EDGE_CURVE ( 'NONE', #310, #310, #132, .T. ) ;
#66 = ORIENTED_EDGE ( 'NONE', *, *, #174, .T. ) ;
#67 = UNCERTAINTY_MEASURE_WITH_UNIT (LENGTH_MEASURE( 1.000000000000000082E-05 ), #356, 'distance_accuracy_value', 'NONE');
#68 = EDGE_LOOP ( 'NONE', ( #97 ) ) ;
#69 = CARTESIAN_POINT ( 'NONE',  ( 0.000000000000000000, 0.000000000000000000, 0.000000000000000000 ) ) ;
#70 = CIRCLE ( 'NONE', #381, 0.02064999999999999822 ) ;
#71 = FACE_BOUND ( 'NONE', #287, .T. ) ;
#72 = DIRECTION ( 'NONE',  ( -1.000000000000000000, 0.000000000000000000, 0.000000000000000000 ) ) ;
#73 = DIRECTION ( 'NONE',  ( 1.000000000000000000, 0.000000000000000000, 0.000000000000000000 ) ) ;
#74 =( NAMED_UNIT ( * ) SI_UNIT ( $, .STERADIAN. ) SOLID_ANGLE_UNIT ( ) );
#75 = TOROIDAL_SURFACE ( 'NONE', #148, 0.009500000000000001499, 0.01400000000000000203 ) ;
#76 = DIRECTION ( 'NONE',  ( 0.000000000000000000, 0.000000000000000000, 1.000000000000000000 ) ) ;
#77 = ADVANCED_FACE ( 'NONE', ( #33, #223 ), #336, .F. ) ;
#78 = DIRECTION ( 'NONE',  ( 0.000000000000000000, 0.000000000000000000, 1.000000000000000000 ) ) ;
#79 = LENGTH_MEASURE_WITH_UNIT ( LENGTH_MEASURE( 0.02539999999999999897 ), #207 );
#80 = DIRECTION ( 'NONE',  ( -1.000000000000000000, 0.000000000000000000, 0.000000000000000000 ) ) ;
#81 = DIMENSIONAL_EXPONENTS ( 1.000000000000000000, 0.000000000000000000, 0.000000000000000000, 0.000000000000000000, 0.000000000000000000, 0.000000000000000000, 0.000000000000000000 ) ;
#82 = CARTESIAN_POINT ( 'NONE',  ( 0.7161000000000000698, 0.000000000000000000, 0.000000000000000000 ) ) ;
#83 = DIRECTION ( 'NONE',  ( 1.000000000000000000, 0.000000000000000000, 0.000000000000000000 ) ) ;
#84 = VERTEX_POINT ( 'NONE', #8 ) ;
#85 = EDGE_LOOP ( 'NONE', ( #38 ) ) ;
#86 = AXIS2_PLACEMENT_3D ( 'NONE', #203, #175, #346 ) ;
#87 = MECHANICAL_DESIGN_GEOMETRIC_PRESENTATION_REPRESENTATION (  '', ( #304 ), #45 ) ;
#88 = CARTESIAN_POINT ( 'NONE',  ( 0.06400000000000000133, 0.000000000000000000, 0.02064999999999999822 ) ) ;
#89 = ORIENTED_EDGE ( 'NONE', *, *, #59, .F. ) ;
#90 = DIRECTION ( 'NONE',  ( -1.000000000000000000, -4.336808689942014847E-19, 1.303942172654869890E-33 ) ) ;
#91 = ORIENTED_EDGE ( 'NONE', *, *, #9, .T. ) ;
#92 = DIRECTION ( 'NONE',  ( -1.000000000000000000, 0.000000000000000000, 0.000000000000000000 ) ) ;
#93 = ADVANCED_FACE ( 'NONE', ( #297, #168 ), #272, .T. ) ;
#94 = ORIENTED_EDGE ( 'NONE', *, *, #339, .F. ) ;
#95 = CARTESIAN_POINT ( 'NONE',  ( 0.000000000000000000, 0.000000000000000000, 0.02064999999999999822 ) ) ;
#96 = EDGE_LOOP ( 'NONE', ( #250 ) ) ;
#97 = ORIENTED_EDGE ( 'NONE', *, *, #107, .F. ) ;
#98 = CARTESIAN_POINT ( 'NONE',  ( 0.000000000000000000, 0.000000000000000000, 0.000000000000000000 ) ) ;
#99 = EDGE_LOOP ( 'NONE', ( #36 ) ) ;
#100 = CYLINDRICAL_SURFACE ( 'NONE', #181, 0.03225000000000000089 ) ;
#101 = PLANE ( 'NONE',  #86 ) ;
#102 = CONICAL_SURFACE ( 'NONE', #164, 0.02229685427572740061, 0.4176096532003674144 ) ;
#103 = AXIS2_PLACEMENT_3D ( 'NONE', #98, #140, #317 ) ;
#104 = DIRECTION ( 'NONE',  ( 1.000000000000000000, 0.000000000000000000, 0.000000000000000000 ) ) ;
#105 = DIRECTION ( 'NONE',  ( -1.000000000000000000, 0.000000000000000000, 0.000000000000000000 ) ) ;
#106 = CARTESIAN_POINT ( 'NONE',  ( -0.2159999999999999976, -9.367506770274764222E-20, 0.000000000000000000 ) ) ;
#107 = EDGE_CURVE ( 'NONE', #194, #194, #294, .T. ) ;
#108 = TOROIDAL_SURFACE ( 'NONE', #327, 0.01350000551334616314, 0.01900000000000000300 ) ;
#109 = DIRECTION ( 'NONE',  ( 0.000000000000000000, 0.000000000000000000, 1.000000000000000000 ) ) ;
#110 = FACE_OUTER_BOUND ( 'NONE', #332, .T. ) ;
#111 = ADVANCED_BREP_SHAPE_REPRESENTATION ( '100-SD_251R3', ( #386, #103 ), #166 ) ;
#112 = AXIS2_PLACEMENT_3D ( 'NONE', #136, #373, #249 ) ;
#113 = CARTESIAN_POINT ( 'NONE',  ( 0.1146495091478950817, 0.000000000000000000, 0.000000000000000000 ) ) ;
#114 = DIRECTION ( 'NONE',  ( 0.000000000000000000, 0.000000000000000000, 1.000000000000000000 ) ) ;
#115 = AXIS2_PLACEMENT_3D ( 'NONE', #63, #378, #25 ) ;
#116 = CARTESIAN_POINT ( 'NONE',  ( 0.07635614734772262768, 0.000000000000000000, 0.000000000000000000 ) ) ;
#117 = VERTEX_POINT ( 'NONE', #191 ) ;
#118 = AXIS2_PLACEMENT_3D ( 'NONE', #371, #35, #228 ) ;
#119 = PRODUCT_DEFINITION_SHAPE ( 'NONE', 'NONE',  #353 ) ;
#120 =( LENGTH_UNIT ( ) NAMED_UNIT ( * ) SI_UNIT ( $, .METRE. ) );
#121 = EDGE_LOOP ( 'NONE', ( #341 ) ) ;
#122 = AXIS2_PLACEMENT_3D ( 'NONE', #238, #382, #78 ) ;
#123 = CIRCLE ( 'NONE', #216, 0.03225000000000000089 ) ;
#124 = CARTESIAN_POINT ( 'NONE',  ( 1.005000000000000115, 0.000000000000000000, 0.000000000000000000 ) ) ;
#125 = VERTEX_POINT ( 'NONE', #88 ) ;
#126 = EDGE_LOOP ( 'NONE', ( #89 ) ) ;
#127 = CARTESIAN_POINT ( 'NONE',  ( 0.7161000000000000698, 0.000000000000000000, 0.03300000000000000155 ) ) ;
#128 = EDGE_LOOP ( 'NONE', ( #372 ) ) ;
#129 = ORIENTED_EDGE ( 'NONE', *, *, #275, .F. ) ;
#130 = CARTESIAN_POINT ( 'NONE',  ( -0.2159999999999999976, 0.0003985950213664893218, 0.006487767105017095033 ) ) ;
#131 = EDGE_LOOP ( 'NONE', ( #314 ) ) ;
#132 = CIRCLE ( 'NONE', #62, 0.03300000000000000155 ) ;
#133 = ORIENTED_EDGE ( 'NONE', *, *, #65, .T. ) ;
#134 = PRODUCT_CONTEXT ( 'NONE', #355, 'mechanical' ) ;
#135 = EDGE_LOOP ( 'NONE', ( #155 ) ) ;
#136 = CARTESIAN_POINT ( 'NONE',  ( 0.06967807367386122386, 0.000000000000000000, 0.000000000000000000 ) ) ;
#137 = CARTESIAN_POINT ( 'NONE',  ( -0.2057375989651543391, -8.922446070398878150E-20, 0.000000000000000000 ) ) ;
#138 = ADVANCED_FACE ( 'NONE', ( #347 ), #208, .F. ) ;
#139 = FACE_OUTER_BOUND ( 'NONE', #121, .T. ) ;
#140 = DIRECTION ( 'NONE',  ( 0.000000000000000000, 0.000000000000000000, 1.000000000000000000 ) ) ;
#141 = CYLINDRICAL_SURFACE ( 'NONE', #215, 0.02064999999999999822 ) ;
#142 = ADVANCED_FACE ( 'NONE', ( #233, #322 ), #389, .T. ) ;
#143 = CARTESIAN_POINT ( 'NONE',  ( 0.7020499999999999519, 0.000000000000000000, 0.000000000000000000 ) ) ;
#144 = DIRECTION ( 'NONE',  ( 0.000000000000000000, 0.06132231097945986531, 0.9981180161564755515 ) ) ;
#145 = DIRECTION ( 'NONE',  ( 0.000000000000000000, 0.000000000000000000, -1.000000000000000000 ) ) ;
#146 = AXIS2_PLACEMENT_3D ( 'NONE', #261, #104, #202 ) ;
#147 = DIRECTION ( 'NONE',  ( 0.000000000000000000, 0.000000000000000000, 1.000000000000000000 ) ) ;
#148 = AXIS2_PLACEMENT_3D ( 'NONE', #116, #80, #243 ) ;
#149 = CARTESIAN_POINT ( 'NONE',  ( 0.000000000000000000, 0.000000000000000000, 0.000000000000000000 ) ) ;
#150 = CARTESIAN_POINT ( 'NONE',  ( 1.080000000000000071, 0.000000000000000000, 0.000000000000000000 ) ) ;
#151 = DIRECTION ( 'NONE',  ( 0.000000000000000000, 0.000000000000000000, 1.000000000000000000 ) ) ;
#152 = AXIS2_PLACEMENT_3D ( 'NONE', #137, #259, #232 ) ;
#153 =( NAMED_UNIT ( * ) PLANE_ANGLE_UNIT ( ) SI_UNIT ( $, .RADIAN. ) );
#154 = CARTESIAN_POINT ( 'NONE',  ( 0.1146329403047135903, 0.000000000000000000, 0.03249999828896153742 ) ) ;
#155 = ORIENTED_EDGE ( 'NONE', *, *, #275, .T. ) ;
#156 = CARTESIAN_POINT ( 'NONE',  ( 0.07635614734772262768, 0.000000000000000000, 0.02350000000000000352 ) ) ;
#157 = ORIENTED_EDGE ( 'NONE', *, *, #234, .T. ) ;
#158 = FACE_OUTER_BOUND ( 'NONE', #68, .T. ) ;
#159 = VERTEX_POINT ( 'NONE', #156 ) ;
#160 = DIRECTION ( 'NONE',  ( -1.000000000000000000, 0.000000000000000000, 0.000000000000000000 ) ) ;
#161 = CARTESIAN_POINT ( 'NONE',  ( 0.06967807367386122386, 0.000000000000000000, 0.02185314572427259766 ) ) ;
#162 = EDGE_LOOP ( 'NONE', ( #230 ) ) ;
#163 = PRESENTATION_STYLE_ASSIGNMENT (( #37 ) ) ;
#164 = AXIS2_PLACEMENT_3D ( 'NONE', #320, #46, #145 ) ;
#165 = EDGE_LOOP ( 'NONE', ( #11 ) ) ;
#166 =( GEOMETRIC_REPRESENTATION_CONTEXT ( 3 ) GLOBAL_UNCERTAINTY_ASSIGNED_CONTEXT ( ( #192 ) ) GLOBAL_UNIT_ASSIGNED_CONTEXT ( ( #364, #153, #214 ) ) REPRESENTATION_CONTEXT ( 'NONE', 'WORKASPACE' ) );
#167 = EDGE_CURVE ( 'NONE', #218, #218, #204, .T. ) ;
#168 = FACE_OUTER_BOUND ( 'NONE', #162, .T. ) ;
#169 = APPLICATION_PROTOCOL_DEFINITION ( 'draft international standard', 'automotive_design', 1998, #52 ) ;
#170 = DIRECTION ( 'NONE',  ( 0.000000000000000000, 0.000000000000000000, -1.000000000000000000 ) ) ;
#171 = SHAPE_DEFINITION_REPRESENTATION ( #119, #111 ) ;
#172 = CYLINDRICAL_SURFACE ( 'NONE', #146, 0.03300000000000000155 ) ;
#173 = AXIS2_PLACEMENT_3D ( 'NONE', #106, #324, #236 ) ;
#174 = EDGE_CURVE ( 'NONE', #125, #125, #182, .T. ) ;
#175 = DIRECTION ( 'NONE',  ( -1.000000000000000000, 0.000000000000000000, 0.000000000000000000 ) ) ;
#176 = DIRECTION ( 'NONE',  ( 0.000000000000000000, 0.000000000000000000, -1.000000000000000000 ) ) ;
#177 = AXIS2_PLACEMENT_3D ( 'NONE', #24, #379, #170 ) ;
#178 = CIRCLE ( 'NONE', #112, 0.02185314572427259766 ) ;
#179 = DIMENSIONAL_EXPONENTS ( 1.000000000000000000, 0.000000000000000000, 0.000000000000000000, 0.000000000000000000, 0.000000000000000000, 0.000000000000000000, 0.000000000000000000 ) ;
#180 = SURFACE_STYLE_FILL_AREA ( #352 ) ;
#181 = AXIS2_PLACEMENT_3D ( 'NONE', #69, #198, #7 ) ;
#182 = CIRCLE ( 'NONE', #366, 0.02064999999999999822 ) ;
#183 = MECHANICAL_DESIGN_GEOMETRIC_PRESENTATION_REPRESENTATION (  '', ( #360 ), #254 ) ;
#184 = EDGE_LOOP ( 'NONE', ( #290 ) ) ;
#185 = EDGE_LOOP ( 'NONE', ( #133 ) ) ;
#186 = FACE_BOUND ( 'NONE', #358, .T. ) ;
#187 = VERTEX_POINT ( 'NONE', #95 ) ;
#188 = CONICAL_SURFACE ( 'NONE', #44, 0.03225000000000000089, 0.7853981633973656784 ) ;
#189 = ADVANCED_FACE ( 'NONE', ( #206, #292 ), #354, .T. ) ;
#190 = FACE_OUTER_BOUND ( 'NONE', #126, .T. ) ;
#191 = CARTESIAN_POINT ( 'NONE',  ( 0.07067807367386122475, 0.000000000000000000, 0.02229685427572740061 ) ) ;
#192 = UNCERTAINTY_MEASURE_WITH_UNIT (LENGTH_MEASURE( 1.000000000000000082E-05 ), #364, 'distance_accuracy_value', 'NONE');
#193 = EDGE_LOOP ( 'NONE', ( #221 ) ) ;
#194 = VERTEX_POINT ( 'NONE', #328 ) ;
#195 = EDGE_LOOP ( 'NONE', ( #157 ) ) ;
#196 = EDGE_LOOP ( 'NONE', ( #257 ) ) ;
#197 = CIRCLE ( 'NONE', #177, 0.01242500000000000028 ) ;
#198 = DIRECTION ( 'NONE',  ( 1.000000000000000000, 0.000000000000000000, 0.000000000000000000 ) ) ;
#199 = COLOUR_RGB ( '',0.7529411764705882248, 0.7529411764705882248, 0.7529411764705882248 ) ;
#200 = DIRECTION ( 'NONE',  ( -1.000000000000000000, 0.000000000000000000, 0.000000000000000000 ) ) ;
#201 =( NAMED_UNIT ( * ) PLANE_ANGLE_UNIT ( ) SI_UNIT ( $, .RADIAN. ) );
#202 = DIRECTION ( 'NONE',  ( 0.000000000000000000, 0.000000000000000000, 1.000000000000000000 ) ) ;
#203 = CARTESIAN_POINT ( 'NONE',  ( 1.080000000000000071, 0.03225000000000000089, 0.000000000000000000 ) ) ;
#204 = CIRCLE ( 'NONE', #253, 0.03249999828896153742 ) ;
#205 = ADVANCED_FACE ( 'NONE', ( #71, #296 ), #102, .T. ) ;
#206 = FACE_BOUND ( 'NONE', #196, .T. ) ;
#207 =( LENGTH_UNIT ( ) NAMED_UNIT ( * ) SI_UNIT ( $, .METRE. ) );
#208 = PLANE ( 'NONE',  #173 ) ;
#209 = EDGE_CURVE ( 'NONE', #187, #187, #70, .T. ) ;
#210 = AXIS2_PLACEMENT_3D ( 'NONE', #258, #160, #14 ) ;
#211 = FILL_AREA_STYLE_COLOUR ( '', #55 ) ;
#212 = EDGE_CURVE ( 'NONE', #285, #285, #299, .T. ) ;
#213 = CYLINDRICAL_SURFACE ( 'NONE', #15, 0.02350000000000000352 ) ;
#214 =( NAMED_UNIT ( * ) SI_UNIT ( $, .STERADIAN. ) SOLID_ANGLE_UNIT ( ) );
#215 = AXIS2_PLACEMENT_3D ( 'NONE', #263, #83, #114 ) ;
#216 = AXIS2_PLACEMENT_3D ( 'NONE', #323, #274, #326 ) ;
#217 = ORIENTED_EDGE ( 'NONE', *, *, #212, .F. ) ;
#218 = VERTEX_POINT ( 'NONE', #154 ) ;
#219 = EDGE_LOOP ( 'NONE', ( #283 ) ) ;
#220 = FACE_OUTER_BOUND ( 'NONE', #195, .T. ) ;
#221 = ORIENTED_EDGE ( 'NONE', *, *, #167, .T. ) ;
#222 = EDGE_CURVE ( 'NONE', #159, #159, #5, .T. ) ;
#223 = FACE_OUTER_BOUND ( 'NONE', #184, .T. ) ;
#224 = AXIS2_PLACEMENT_3D ( 'NONE', #279, #225, #4 ) ;
#225 = DIRECTION ( 'NONE',  ( -1.000000000000000000, 0.000000000000000000, 0.000000000000000000 ) ) ;
#226 = VERTEX_POINT ( 'NONE', #2 ) ;
#227 = PRODUCT_DEFINITION_CONTEXT ( 'detailed design', #52, 'design' ) ;
#228 = DIRECTION ( 'NONE',  ( 0.000000000000000000, 0.06132231097945985143, 0.9981180161564755515 ) ) ;
#229 = ADVANCED_FACE ( 'NONE', ( #374 ), #101, .F. ) ;
#230 = ORIENTED_EDGE ( 'NONE', *, *, #65, .F. ) ;
#231 = AXIS2_PLACEMENT_3D ( 'NONE', #41, #348, #22 ) ;
#232 = DIRECTION ( 'NONE',  ( 0.000000000000000000, -0.06132231097945985143, -0.9981180161564755515 ) ) ;
#233 = FACE_BOUND ( 'NONE', #286, .T. ) ;
#234 = EDGE_CURVE ( 'NONE', #84, #84, #197, .T. ) ;
#235 = CARTESIAN_POINT ( 'NONE',  ( 0.06400000000000000133, 0.000000000000000000, 0.000000000000000000 ) ) ;
#236 = DIRECTION ( 'NONE',  ( 2.659431311430683907E-20, -0.06132231097945985837, -0.9981180161564755515 ) ) ;
#237 = FACE_OUTER_BOUND ( 'NONE', #246, .T. ) ;
#238 = CARTESIAN_POINT ( 'NONE',  ( 0.07635614734772262768, 0.000000000000000000, 0.000000000000000000 ) ) ;
#239 = ADVANCED_FACE ( 'NONE', ( #20, #139 ), #172, .T. ) ;
#240 = DIRECTION ( 'NONE',  ( -1.000000000000000000, 0.000000000000000000, 0.000000000000000000 ) ) ;
#241 = VERTEX_POINT ( 'NONE', #161 ) ;
#242 = CIRCLE ( 'NONE', #29, 0.01242500000000000895 ) ;
#243 = DIRECTION ( 'NONE',  ( 0.000000000000000000, 0.000000000000000000, 1.000000000000000000 ) ) ;
#244 = DIRECTION ( 'NONE',  ( -1.000000000000000000, 0.000000000000000000, 0.000000000000000000 ) ) ;
#245 = CARTESIAN_POINT ( 'NONE',  ( 0.1016088826688043290, 0.000000000000000000, 0.02731818415717693002 ) ) ;
#246 = EDGE_LOOP ( 'NONE', ( #13 ) ) ;
#247 = DIRECTION ( 'NONE',  ( 0.000000000000000000, 0.000000000000000000, 1.000000000000000000 ) ) ;
#248 =( NAMED_UNIT ( * ) PLANE_ANGLE_UNIT ( ) SI_UNIT ( $, .RADIAN. ) );
#249 = DIRECTION ( 'NONE',  ( 0.000000000000000000, 0.000000000000000000, 1.000000000000000000 ) ) ;
#250 = ORIENTED_EDGE ( 'NONE', *, *, #293, .T. ) ;
#251 = EDGE_LOOP ( 'NONE', ( #282 ) ) ;
#252 = ORIENTED_EDGE ( 'NONE', *, *, #329, .T. ) ;
#253 = AXIS2_PLACEMENT_3D ( 'NONE', #264, #318, #76 ) ;
#254 =( GEOMETRIC_REPRESENTATION_CONTEXT ( 3 ) GLOBAL_UNCERTAINTY_ASSIGNED_CONTEXT ( ( #370 ) ) GLOBAL_UNIT_ASSIGNED_CONTEXT ( ( #260, #201, #74 ) ) REPRESENTATION_CONTEXT ( 'NONE', 'WORKASPACE' ) );
#255 = ADVANCED_FACE ( 'NONE', ( #319, #295 ), #141, .T. ) ;
#256 = ORIENTED_EDGE ( 'NONE', *, *, #212, .T. ) ;
#257 = ORIENTED_EDGE ( 'NONE', *, *, #167, .F. ) ;
#258 = CARTESIAN_POINT ( 'NONE',  ( 0.09199999999999999845, 0.000000000000000000, 0.000000000000000000 ) ) ;
#259 = DIRECTION ( 'NONE',  ( 1.000000000000000000, 4.336808689942014847E-19, -1.303942172654869890E-33 ) ) ;
#260 =( CONVERSION_BASED_UNIT ( 'INCH', #377 ) LENGTH_UNIT ( ) NAMED_UNIT ( #81 ) );
#261 = CARTESIAN_POINT ( 'NONE',  ( 0.000000000000000000, 0.000000000000000000, 0.000000000000000000 ) ) ;
#262 = ADVANCED_FACE ( 'NONE', ( #383, #300 ), #39, .F. ) ;
#263 = CARTESIAN_POINT ( 'NONE',  ( 0.000000000000000000, 0.000000000000000000, 0.000000000000000000 ) ) ;
#264 = CARTESIAN_POINT ( 'NONE',  ( 0.1146329403047135903, 0.000000000000000000, 0.000000000000000000 ) ) ;
#265 = SURFACE_SIDE_STYLE ('',( #180 ) ) ;
#266 = CARTESIAN_POINT ( 'NONE',  ( 0.000000000000000000, 0.000000000000000000, 0.000000000000000000 ) ) ;
#267 = AXIS2_PLACEMENT_3D ( 'NONE', #305, #301, #27 ) ;
#268 = CIRCLE ( 'NONE', #289, 0.006500000000000004038 ) ;
#269 = DIRECTION ( 'NONE',  ( 1.000000000000000000, 0.000000000000000000, 0.000000000000000000 ) ) ;
#270 = FACE_OUTER_BOUND ( 'NONE', #278, .T. ) ;
#271 = DIMENSIONAL_EXPONENTS ( 1.000000000000000000, 0.000000000000000000, 0.000000000000000000, 0.000000000000000000, 0.000000000000000000, 0.000000000000000000, 0.000000000000000000 ) ;
#272 = TOROIDAL_SURFACE ( 'NONE', #21, 0.006549642857142795593, 0.02995035714285716744 ) ;
#273 = PRODUCT_DEFINITION_FORMATION_WITH_SPECIFIED_SOURCE ( 'ANY', '', #306, .NOT_KNOWN. ) ;
#274 = DIRECTION ( 'NONE',  ( -1.000000000000000000, 0.000000000000000000, 0.000000000000000000 ) ) ;
#275 = EDGE_CURVE ( 'NONE', #32, #32, #51, .T. ) ;
#276 = CARTESIAN_POINT ( 'NONE',  ( 0.09199999999999999845, 0.000000000000000000, 0.02349999999999964617 ) ) ;
#277 = LENGTH_MEASURE_WITH_UNIT ( LENGTH_MEASURE( 0.02539999999999999897 ), #120 );
#278 = EDGE_LOOP ( 'NONE', ( #91 ) ) ;
#279 = CARTESIAN_POINT ( 'NONE',  ( 0.09199999999999999845, 0.000000000000000000, 0.000000000000000000 ) ) ;
#280 = SURFACE_SIDE_STYLE ('',( #308 ) ) ;
#281 = CIRCLE ( 'NONE', #288, 0.03300000000000000155 ) ;
#282 = ORIENTED_EDGE ( 'NONE', *, *, #339, .T. ) ;
#283 = ORIENTED_EDGE ( 'NONE', *, *, #302, .T. ) ;
#284 = DIRECTION ( 'NONE',  ( -1.000000000000000000, 0.000000000000000000, 0.000000000000000000 ) ) ;
#285 = VERTEX_POINT ( 'NONE', #245 ) ;
#286 = EDGE_LOOP ( 'NONE', ( #94 ) ) ;
#287 = EDGE_LOOP ( 'NONE', ( #335 ) ) ;
#288 = AXIS2_PLACEMENT_3D ( 'NONE', #82, #244, #28 ) ;
#289 = AXIS2_PLACEMENT_3D ( 'NONE', #388, #351, #144 ) ;
#290 = ORIENTED_EDGE ( 'NONE', *, *, #209, .T. ) ;
#291 = DIRECTION ( 'NONE',  ( 0.000000000000000000, 0.000000000000000000, 1.000000000000000000 ) ) ;
#292 = FACE_OUTER_BOUND ( 'NONE', #185, .T. ) ;
#293 = EDGE_CURVE ( 'NONE', #117, #117, #26, .T. ) ;
#294 = CIRCLE ( 'NONE', #337, 0.03300000000000000155 ) ;
#295 = FACE_OUTER_BOUND ( 'NONE', #56, .T. ) ;
#296 = FACE_OUTER_BOUND ( 'NONE', #96, .T. ) ;
#297 = FACE_OUTER_BOUND ( 'NONE', #219, .T. ) ;
#298 = FACE_OUTER_BOUND ( 'NONE', #193, .T. ) ;
#299 = CIRCLE ( 'NONE', #231, 0.02731818415717693002 ) ;
#300 = FACE_OUTER_BOUND ( 'NONE', #363, .T. ) ;
#301 = DIRECTION ( 'NONE',  ( -1.000000000000000000, 0.000000000000000000, 0.000000000000000000 ) ) ;
#302 = EDGE_CURVE ( 'NONE', #338, #338, #281, .T. ) ;
#303 = DIRECTION ( 'NONE',  ( -1.000000000000000000, 0.000000000000000000, 0.000000000000000000 ) ) ;
#304 = STYLED_ITEM ( 'NONE', ( #380 ), #386 ) ;
#305 = CARTESIAN_POINT ( 'NONE',  ( 0.06400000000000000133, 0.000000000000000000, 0.000000000000000000 ) ) ;
#306 = PRODUCT ( '100-SD_251R3', '100-SD_251R3', '', ( #134 ) ) ;
#307 = PRODUCT_RELATED_PRODUCT_CATEGORY ( 'part', '', ( #306 ) ) ;
#308 = SURFACE_STYLE_FILL_AREA ( #57 ) ;
#309 = DIRECTION ( 'NONE',  ( 0.000000000000000000, 0.000000000000000000, 1.000000000000000000 ) ) ;
#310 = VERTEX_POINT ( 'NONE', #34 ) ;
#311 = FACE_OUTER_BOUND ( 'NONE', #361, .T. ) ;
#312 = CARTESIAN_POINT ( 'NONE',  ( 1.005000000000000115, 0.000000000000000000, 0.03225000000000000089 ) ) ;
#313 = EDGE_LOOP ( 'NONE', ( #66 ) ) ;
#314 = ORIENTED_EDGE ( 'NONE', *, *, #107, .T. ) ;
#315 = ORIENTED_EDGE ( 'NONE', *, *, #174, .F. ) ;
#316 = FACE_OUTER_BOUND ( 'NONE', #128, .T. ) ;
#317 = DIRECTION ( 'NONE',  ( 1.000000000000000000, 0.000000000000000000, 0.000000000000000000 ) ) ;
#318 = DIRECTION ( 'NONE',  ( -1.000000000000000000, 0.000000000000000000, 0.000000000000000000 ) ) ;
#319 = FACE_OUTER_BOUND ( 'NONE', #313, .T. ) ;
#320 = CARTESIAN_POINT ( 'NONE',  ( 0.07067807367386122475, 0.000000000000000000, 0.000000000000000000 ) ) ;
#321 = ADVANCED_FACE ( 'NONE', ( #298, #110 ), #108, .T. ) ;
#322 = FACE_OUTER_BOUND ( 'NONE', #85, .T. ) ;
#323 = CARTESIAN_POINT ( 'NONE',  ( 1.005000000000000115, 0.000000000000000000, 0.000000000000000000 ) ) ;
#324 = DIRECTION ( 'NONE',  ( 1.000000000000000000, 4.336808689942019662E-19, 1.998152317301757198E-33 ) ) ;
#325 = DIRECTION ( 'NONE',  ( 0.000000000000000000, 0.000000000000000000, 1.000000000000000000 ) ) ;
#326 = DIRECTION ( 'NONE',  ( 0.000000000000000000, 0.000000000000000000, 1.000000000000000000 ) ) ;
#327 = AXIS2_PLACEMENT_3D ( 'NONE', #113, #50, #151 ) ;
#328 = CARTESIAN_POINT ( 'NONE',  ( 1.004250000000000087, 0.000000000000000000, 0.03300000000000000155 ) ) ;
#329 = EDGE_CURVE ( 'NONE', #12, #12, #123, .T. ) ;
#330 = EDGE_LOOP ( 'NONE', ( #369 ) ) ;
#331 = FILL_AREA_STYLE_COLOUR ( '', #199 ) ;
#332 = EDGE_LOOP ( 'NONE', ( #217 ) ) ;
#333 = FACE_OUTER_BOUND ( 'NONE', #18, .T. ) ;
#334 = VERTEX_POINT ( 'NONE', #276 ) ;
#335 = ORIENTED_EDGE ( 'NONE', *, *, #17, .F. ) ;
#336 = PLANE ( 'NONE',  #115 ) ;
#337 = AXIS2_PLACEMENT_3D ( 'NONE', #350, #200, #291 ) ;
#338 = VERTEX_POINT ( 'NONE', #127 ) ;
#339 = EDGE_CURVE ( 'NONE', #367, #367, #268, .T. ) ;
#340 = ORIENTED_EDGE ( 'NONE', *, *, #17, .T. ) ;
#341 = ORIENTED_EDGE ( 'NONE', *, *, #302, .F. ) ;
#342 = CIRCLE ( 'NONE', #210, 0.02349999999999964617 ) ;
#343 = FACE_OUTER_BOUND ( 'NONE', #135, .T. ) ;
#344 = ADVANCED_FACE ( 'NONE', ( #270, #48 ), #213, .T. ) ;
#345 = AXIS2_PLACEMENT_3D ( 'NONE', #150, #303, #325 ) ;
#346 = DIRECTION ( 'NONE',  ( 0.000000000000000000, 0.000000000000000000, 1.000000000000000000 ) ) ;
#347 = FACE_OUTER_BOUND ( 'NONE', #251, .T. ) ;
#348 = DIRECTION ( 'NONE',  ( -1.000000000000000000, 0.000000000000000000, 0.000000000000000000 ) ) ;
#349 = AXIS2_PLACEMENT_3D ( 'NONE', #47, #73, #176 ) ;
#350 = CARTESIAN_POINT ( 'NONE',  ( 1.004250000000000087, 0.000000000000000000, 0.000000000000000000 ) ) ;
#351 = DIRECTION ( 'NONE',  ( -1.000000000000000000, -4.336808689942014847E-19, 1.543271059696420034E-33 ) ) ;
#352 = FILL_AREA_STYLE ('',( #211 ) ) ;
#353 = PRODUCT_DEFINITION ( 'UNKNOWN', '', #273, #227 ) ;
#354 = CONICAL_SURFACE ( 'NONE', #349, 0.03300000000000000155, 0.0008720444885036713126 ) ;
#355 = APPLICATION_CONTEXT ( 'automotive_design' ) ;
#356 =( CONVERSION_BASED_UNIT ( 'INCH', #79 ) LENGTH_UNIT ( ) NAMED_UNIT ( #271 ) );
#357 = SURFACE_STYLE_USAGE ( .BOTH. , #265 ) ;
#358 = EDGE_LOOP ( 'NONE', ( #252 ) ) ;
#359 = AXIS2_PLACEMENT_3D ( 'NONE', #385, #240, #147 ) ;
#360 = STYLED_ITEM ( 'NONE', ( #163 ), #111 ) ;
#361 = EDGE_LOOP ( 'NONE', ( #256 ) ) ;
#362 = CARTESIAN_POINT ( 'NONE',  ( -0.2057375989651543391, -8.922446070398878150E-20, 0.000000000000000000 ) ) ;
#363 = EDGE_LOOP ( 'NONE', ( #340 ) ) ;
#364 =( CONVERSION_BASED_UNIT ( 'INCH', #277 ) LENGTH_UNIT ( ) NAMED_UNIT ( #179 ) );
#365 = CYLINDRICAL_SURFACE ( 'NONE', #118, 0.01242500000000000895 ) ;
#366 = AXIS2_PLACEMENT_3D ( 'NONE', #235, #105, #109 ) ;
#367 = VERTEX_POINT ( 'NONE', #130 ) ;
#368 = PRESENTATION_LAYER_ASSIGNMENT (  '', '', ( #360 ) ) ;
#369 = ORIENTED_EDGE ( 'NONE', *, *, #222, .F. ) ;
#370 = UNCERTAINTY_MEASURE_WITH_UNIT (LENGTH_MEASURE( 1.000000000000000082E-05 ), #260, 'distance_accuracy_value', 'NONE');
#371 = CARTESIAN_POINT ( 'NONE',  ( -0.2159999999999999976, -9.367506770274764222E-20, 0.000000000000000000 ) ) ;
#372 = ORIENTED_EDGE ( 'NONE', *, *, #9, .F. ) ;
#373 = DIRECTION ( 'NONE',  ( -1.000000000000000000, 0.000000000000000000, 0.000000000000000000 ) ) ;
#374 = FACE_OUTER_BOUND ( 'NONE', #10, .T. ) ;
#375 = PRESENTATION_LAYER_ASSIGNMENT (  '', '', ( #304 ) ) ;
#376 = DIRECTION ( 'NONE',  ( 0.000000000000000000, 0.000000000000000000, 1.000000000000000000 ) ) ;
#377 = LENGTH_MEASURE_WITH_UNIT ( LENGTH_MEASURE( 0.02539999999999999897 ), #40 );
#378 = DIRECTION ( 'NONE',  ( 1.000000000000000000, 0.000000000000000000, 0.000000000000000000 ) ) ;
#379 = DIRECTION ( 'NONE',  ( -1.000000000000000000, -0.000000000000000000, -0.000000000000000000 ) ) ;
#380 = PRESENTATION_STYLE_ASSIGNMENT (( #357 ) ) ;
#381 = AXIS2_PLACEMENT_3D ( 'NONE', #266, #72, #376 ) ;
#382 = DIRECTION ( 'NONE',  ( -1.000000000000000000, 0.000000000000000000, 0.000000000000000000 ) ) ;
#383 = FACE_OUTER_BOUND ( 'NONE', #58, .T. ) ;
#384 = ADVANCED_FACE ( 'NONE', ( #237, #54 ), #75, .T. ) ;
#385 = CARTESIAN_POINT ( 'NONE',  ( 0.07067807367386122475, 0.000000000000000000, 0.000000000000000000 ) ) ;
#386 = MANIFOLD_SOLID_BREP ( 'Combine1', #30 ) ;
#387 = TOROIDAL_SURFACE ( 'NONE', #224, 0.03749999999999999861, 0.01399999999999966376 ) ;
#388 = CARTESIAN_POINT ( 'NONE',  ( -0.2159999999999999976, -9.367506770274764222E-20, 0.000000000000000000 ) ) ;
#389 = CONICAL_SURFACE ( 'NONE', #152, 0.01242500000000000895, 0.5235987755982992597 ) ;
ENDSEC;
END-ISO-10303-21;
