ISO-10303-21;
HEADER;
FILE_DESCRIPTION (( 'STEP AP214' ),
    '1' );
FILE_NAME ('100-SD_251R5.STEP',
    '2022-12-27T13:23:54',
    ( '' ),
    ( '' ),
    'SwSTEP 2.0',
    'SolidWorks 2020',
    '' );
FILE_SCHEMA (( 'AUTOMOTIVE_DESIGN' ));
ENDSEC;

DATA;
#1 = CARTESIAN_POINT ( 'NONE',  ( 0.07635614734772262768, 0.000000000000000000, 0.000000000000000000 ) ) ;
#2 = TOROIDAL_SURFACE ( 'NONE', #276, 0.006549642857142795593, 0.02995035714285716744 ) ;
#3 = EDGE_CURVE ( 'NONE', #95, #95, #146, .T. ) ;
#4 = CARTESIAN_POINT ( 'NONE',  ( 0.06967807367386122386, 0.000000000000000000, 0.02185314572427259766 ) ) ;
#5 = EDGE_LOOP ( 'NONE', ( #191 ) ) ;
#6 = VERTEX_POINT ( 'NONE', #116 ) ;
#7 = EDGE_LOOP ( 'NONE', ( #308 ) ) ;
#8 = SURFACE_SIDE_STYLE ('',( #50 ) ) ;
#9 = EDGE_CURVE ( 'NONE', #66, #66, #214, .T. ) ;
#10 = ORIENTED_EDGE ( 'NONE', *, *, #259, .F. ) ;
#11 = APPLICATION_PROTOCOL_DEFINITION ( 'draft international standard', 'automotive_design', 1998, #314 ) ;
#12 = FACE_OUTER_BOUND ( 'NONE', #102, .T. ) ;
#13 = ORIENTED_EDGE ( 'NONE', *, *, #332, .T. ) ;
#14 = DIRECTION ( 'NONE',  ( 0.000000000000000000, 0.000000000000000000, 1.000000000000000000 ) ) ;
#15 = EDGE_LOOP ( 'NONE', ( #211 ) ) ;
#16 = PLANE ( 'NONE',  #61 ) ;
#17 = CYLINDRICAL_SURFACE ( 'NONE', #320, 0.03225000000000000089 ) ;
#18 = DIRECTION ( 'NONE',  ( 0.000000000000000000, 0.000000000000000000, -1.000000000000000000 ) ) ;
#19 =( GEOMETRIC_REPRESENTATION_CONTEXT ( 3 ) GLOBAL_UNCERTAINTY_ASSIGNED_CONTEXT ( ( #213 ) ) GLOBAL_UNIT_ASSIGNED_CONTEXT ( ( #30, #154, #59 ) ) REPRESENTATION_CONTEXT ( 'NONE', 'WORKASPACE' ) );
#20 = FACE_OUTER_BOUND ( 'NONE', #370, .T. ) ;
#21 = CARTESIAN_POINT ( 'NONE',  ( -0.9470000000000000639, 1.723560462112697110E-18, -4.268512490100409738E-18 ) ) ;
#22 = CYLINDRICAL_SURFACE ( 'NONE', #216, 0.03300000000000000155 ) ;
#23 = DIRECTION ( 'NONE',  ( 1.000000000000000000, 4.336808689942019662E-19, 1.998152317301757198E-33 ) ) ;
#24 = PRESENTATION_LAYER_ASSIGNMENT (  '', '', ( #248 ) ) ;
#25 = DIRECTION ( 'NONE',  ( 0.000000000000000000, 0.000000000000000000, 1.000000000000000000 ) ) ;
#26 = ORIENTED_EDGE ( 'NONE', *, *, #237, .F. ) ;
#27 = CYLINDRICAL_SURFACE ( 'NONE', #301, 0.02064999999999999822 ) ;
#28 = EDGE_LOOP ( 'NONE', ( #323 ) ) ;
#29 = AXIS2_PLACEMENT_3D ( 'NONE', #379, #134, #373 ) ;
#30 =( CONVERSION_BASED_UNIT ( 'INCH', #243 ) LENGTH_UNIT ( ) NAMED_UNIT ( #150 ) );
#31 = UNCERTAINTY_MEASURE_WITH_UNIT (LENGTH_MEASURE( 1.000000000000000082E-05 ), #382, 'distance_accuracy_value', 'NONE');
#32 = FACE_OUTER_BOUND ( 'NONE', #180, .T. ) ;
#33 = PRODUCT_DEFINITION_SHAPE ( 'NONE', 'NONE',  #178 ) ;
#34 = EDGE_CURVE ( 'NONE', #6, #6, #267, .T. ) ;
#35 = CARTESIAN_POINT ( 'NONE',  ( 0.09199999999999999845, 0.000000000000000000, 0.02349999999999964617 ) ) ;
#36 = STYLED_ITEM ( 'NONE', ( #227 ), #220 ) ;
#37 = EDGE_LOOP ( 'NONE', ( #228 ) ) ;
#38 = CIRCLE ( 'NONE', #155, 0.03300000000000000155 ) ;
#39 = ORIENTED_EDGE ( 'NONE', *, *, #291, .T. ) ;
#40 = CARTESIAN_POINT ( 'NONE',  ( 0.6880000000000000560, 0.000000000000000000, 0.03300000000000000155 ) ) ;
#41 = EDGE_LOOP ( 'NONE', ( #93 ) ) ;
#42 =( CONVERSION_BASED_UNIT ( 'INCH', #192 ) LENGTH_UNIT ( ) NAMED_UNIT ( #245 ) );
#43 = EDGE_LOOP ( 'NONE', ( #334 ) ) ;
#44 = CARTESIAN_POINT ( 'NONE',  ( 0.06400000000000000133, 0.000000000000000000, 0.000000000000000000 ) ) ;
#45 = ORIENTED_EDGE ( 'NONE', *, *, #286, .T. ) ;
#46 = MECHANICAL_DESIGN_GEOMETRIC_PRESENTATION_REPRESENTATION (  '', ( #248 ), #76 ) ;
#47 = DIRECTION ( 'NONE',  ( 0.000000000000000000, 0.000000000000000000, 1.000000000000000000 ) ) ;
#48 = DIRECTION ( 'NONE',  ( 0.000000000000000000, 0.000000000000000000, -1.000000000000000000 ) ) ;
#49 = ORIENTED_EDGE ( 'NONE', *, *, #383, .T. ) ;
#50 = SURFACE_STYLE_FILL_AREA ( #70 ) ;
#51 = DIRECTION ( 'NONE',  ( 0.000000000000000000, 0.000000000000000000, 1.000000000000000000 ) ) ;
#52 = DIRECTION ( 'NONE',  ( 0.000000000000000000, 0.000000000000000000, -1.000000000000000000 ) ) ;
#53 = CIRCLE ( 'NONE', #284, 0.03249999828896153742 ) ;
#54 = FACE_OUTER_BOUND ( 'NONE', #164, .T. ) ;
#55 = CARTESIAN_POINT ( 'NONE',  ( 0.000000000000000000, 0.000000000000000000, 0.000000000000000000 ) ) ;
#56 = FACE_OUTER_BOUND ( 'NONE', #5, .T. ) ;
#57 = DIRECTION ( 'NONE',  ( 2.659431311430683907E-20, -0.06132231097945985837, -0.9981180161564755515 ) ) ;
#58 = EDGE_LOOP ( 'NONE', ( #198 ) ) ;
#59 =( NAMED_UNIT ( * ) SI_UNIT ( $, .STERADIAN. ) SOLID_ANGLE_UNIT ( ) );
#60 = PRODUCT ( '100-SD_251R5', '100-SD_251R5', '', ( #254 ) ) ;
#61 = AXIS2_PLACEMENT_3D ( 'NONE', #99, #281, #48 ) ;
#62 = DIRECTION ( 'NONE',  ( 0.000000000000000000, 0.000000000000000000, 1.000000000000000000 ) ) ;
#63 = EDGE_CURVE ( 'NONE', #309, #309, #81, .T. ) ;
#64 = UNCERTAINTY_MEASURE_WITH_UNIT (LENGTH_MEASURE( 1.000000000000000082E-05 ), #42, 'distance_accuracy_value', 'NONE');
#65 = DIRECTION ( 'NONE',  ( 0.000000000000000000, 0.000000000000000000, 1.000000000000000000 ) ) ;
#66 = VERTEX_POINT ( 'NONE', #186 ) ;
#67 = DIRECTION ( 'NONE',  ( 0.000000000000000000, 0.000000000000000000, 1.000000000000000000 ) ) ;
#68 = CARTESIAN_POINT ( 'NONE',  ( 1.004250000000000087, 0.000000000000000000, 0.03300000000000000155 ) ) ;
#69 = EDGE_LOOP ( 'NONE', ( #49 ) ) ;
#70 = FILL_AREA_STYLE ('',( #97 ) ) ;
#71 = FACE_OUTER_BOUND ( 'NONE', #127, .T. ) ;
#72 = EDGE_LOOP ( 'NONE', ( #255 ) ) ;
#73 = CYLINDRICAL_SURFACE ( 'NONE', #327, 0.02350000000000000352 ) ;
#74 = ORIENTED_EDGE ( 'NONE', *, *, #291, .F. ) ;
#75 = FACE_OUTER_BOUND ( 'NONE', #15, .T. ) ;
#76 =( GEOMETRIC_REPRESENTATION_CONTEXT ( 3 ) GLOBAL_UNCERTAINTY_ASSIGNED_CONTEXT ( ( #64 ) ) GLOBAL_UNIT_ASSIGNED_CONTEXT ( ( #42, #160, #128 ) ) REPRESENTATION_CONTEXT ( 'NONE', 'WORKASPACE' ) );
#77 = CARTESIAN_POINT ( 'NONE',  ( 0.000000000000000000, 0.000000000000000000, 0.000000000000000000 ) ) ;
#78 = DIRECTION ( 'NONE',  ( 0.000000000000000000, 0.000000000000000000, 1.000000000000000000 ) ) ;
#79 = FACE_BOUND ( 'NONE', #336, .T. ) ;
#80 = ADVANCED_FACE ( 'NONE', ( #349, #75 ), #17, .T. ) ;
#81 = CIRCLE ( 'NONE', #91, 0.01242500000000000895 ) ;
#82 = CIRCLE ( 'NONE', #329, 0.02185314572427259766 ) ;
#83 = DIRECTION ( 'NONE',  ( 0.000000000000000000, 0.06132231097945985143, 0.9981180161564755515 ) ) ;
#84 = DIRECTION ( 'NONE',  ( 0.000000000000000000, 0.000000000000000000, -1.000000000000000000 ) ) ;
#85 = CIRCLE ( 'NONE', #133, 0.02731818415717693002 ) ;
#86 = MECHANICAL_DESIGN_GEOMETRIC_PRESENTATION_REPRESENTATION (  '', ( #36 ), #258 ) ;
#87 = DIRECTION ( 'NONE',  ( 1.000000000000000000, 4.336808689942014847E-19, -1.303942172654869890E-33 ) ) ;
#88 = DIRECTION ( 'NONE',  ( -1.000000000000000000, 0.000000000000000000, 0.000000000000000000 ) ) ;
#89 = ADVANCED_FACE ( 'NONE', ( #222, #342 ), #73, .T. ) ;
#90 = CARTESIAN_POINT ( 'NONE',  ( 0.09199999999999999845, 0.000000000000000000, 0.000000000000000000 ) ) ;
#91 = AXIS2_PLACEMENT_3D ( 'NONE', #126, #132, #257 ) ;
#92 = DIRECTION ( 'NONE',  ( -1.000000000000000000, 0.000000000000000000, 0.000000000000000000 ) ) ;
#93 = ORIENTED_EDGE ( 'NONE', *, *, #63, .T. ) ;
#94 = ADVANCED_FACE ( 'NONE', ( #158, #163 ), #112, .T. ) ;
#95 = VERTEX_POINT ( 'NONE', #303 ) ;
#96 = ORIENTED_EDGE ( 'NONE', *, *, #332, .F. ) ;
#97 = FILL_AREA_STYLE_COLOUR ( '', #360 ) ;
#98 = AXIS2_PLACEMENT_3D ( 'NONE', #377, #167, #290 ) ;
#99 = CARTESIAN_POINT ( 'NONE',  ( -8.670415995516457040E-19, 0.02064999999999999822, 0.000000000000000000 ) ) ;
#100 = ORIENTED_EDGE ( 'NONE', *, *, #9, .T. ) ;
#101 = FACE_OUTER_BOUND ( 'NONE', #41, .T. ) ;
#102 = EDGE_LOOP ( 'NONE', ( #100 ) ) ;
#103 = EDGE_CURVE ( 'NONE', #307, #307, #272, .T. ) ;
#104 = CARTESIAN_POINT ( 'NONE',  ( 0.000000000000000000, 2.134256245050205639E-18, -4.268512490100410508E-18 ) ) ;
#105 = AXIS2_PLACEMENT_3D ( 'NONE', #166, #262, #14 ) ;
#106 = EDGE_LOOP ( 'NONE', ( #367 ) ) ;
#107 = CARTESIAN_POINT ( 'NONE',  ( 1.080000000000000071, 0.03225000000000000089, 0.000000000000000000 ) ) ;
#108 = CARTESIAN_POINT ( 'NONE',  ( 1.005000000000000115, 0.000000000000000000, 0.000000000000000000 ) ) ;
#109 = ADVANCED_FACE ( 'NONE', ( #131, #101 ), #362, .T. ) ;
#110 = CARTESIAN_POINT ( 'NONE',  ( 0.07635614734772262768, 0.000000000000000000, 0.000000000000000000 ) ) ;
#111 = FACE_OUTER_BOUND ( 'NONE', #124, .T. ) ;
#112 = CONICAL_SURFACE ( 'NONE', #226, 0.03225000000000000089, 0.7853981633973656784 ) ;
#113 = DIRECTION ( 'NONE',  ( 0.000000000000000000, 0.000000000000000000, 1.000000000000000000 ) ) ;
#114 = DIRECTION ( 'NONE',  ( 0.000000000000000000, 0.000000000000000000, 1.000000000000000000 ) ) ;
#115 = ORIENTED_EDGE ( 'NONE', *, *, #34, .T. ) ;
#116 = CARTESIAN_POINT ( 'NONE',  ( 0.000000000000000000, 0.000000000000000000, 0.02064999999999999822 ) ) ;
#117 = CIRCLE ( 'NONE', #321, 0.03225000000000000089 ) ;
#118 = ADVANCED_FACE ( 'NONE', ( #71, #260 ), #368, .F. ) ;
#119 = CARTESIAN_POINT ( 'NONE',  ( 0.06400000000000000133, 0.000000000000000000, 0.02064999999999999822 ) ) ;
#120 = VERTEX_POINT ( 'NONE', #4 ) ;
#121 = EDGE_CURVE ( 'NONE', #343, #343, #353, .T. ) ;
#122 =( LENGTH_UNIT ( ) NAMED_UNIT ( * ) SI_UNIT ( $, .METRE. ) );
#123 = AXIS2_PLACEMENT_3D ( 'NONE', #380, #239, #84 ) ;
#124 = EDGE_LOOP ( 'NONE', ( #317 ) ) ;
#125 = CARTESIAN_POINT ( 'NONE',  ( 0.000000000000000000, 2.134256245050205639E-18, -0.01242500000000000548 ) ) ;
#126 = CARTESIAN_POINT ( 'NONE',  ( -0.9367375989651536283, 1.728011069111454863E-18, -4.268512490100409738E-18 ) ) ;
#127 = EDGE_LOOP ( 'NONE', ( #10 ) ) ;
#128 =( NAMED_UNIT ( * ) SI_UNIT ( $, .STERADIAN. ) SOLID_ANGLE_UNIT ( ) );
#129 = CYLINDRICAL_SURFACE ( 'NONE', #275, 0.01242500000000000895 ) ;
#130 = ORIENTED_EDGE ( 'NONE', *, *, #325, .T. ) ;
#131 = FACE_BOUND ( 'NONE', #306, .T. ) ;
#132 = DIRECTION ( 'NONE',  ( -1.000000000000000000, -4.336808689942014847E-19, 1.303942172654869890E-33 ) ) ;
#133 = AXIS2_PLACEMENT_3D ( 'NONE', #269, #386, #330 ) ;
#134 = DIRECTION ( 'NONE',  ( 1.000000000000000000, 4.336808689942014847E-19, -1.303942172654869890E-33 ) ) ;
#135 = CARTESIAN_POINT ( 'NONE',  ( 0.000000000000000000, 0.000000000000000000, 0.000000000000000000 ) ) ;
#136 = ADVANCED_FACE ( 'NONE', ( #318, #324 ), #16, .F. ) ;
#137 = DIRECTION ( 'NONE',  ( -1.000000000000000000, 0.000000000000000000, 0.000000000000000000 ) ) ;
#138 = AXIS2_PLACEMENT_3D ( 'NONE', #110, #328, #170 ) ;
#139 = CARTESIAN_POINT ( 'NONE',  ( 0.000000000000000000, 0.000000000000000000, 0.000000000000000000 ) ) ;
#140 = PLANE ( 'NONE',  #184 ) ;
#141 = CONICAL_SURFACE ( 'NONE', #151, 0.03300000000000000155, 0.0008720444885036713126 ) ;
#142 = CARTESIAN_POINT ( 'NONE',  ( 0.000000000000000000, 0.000000000000000000, 0.000000000000000000 ) ) ;
#143 = ADVANCED_FACE ( 'NONE', ( #79, #292 ), #141, .T. ) ;
#144 = CARTESIAN_POINT ( 'NONE',  ( -0.9470000000000000639, 1.723560462112697110E-18, -4.268512490100409738E-18 ) ) ;
#145 = CARTESIAN_POINT ( 'NONE',  ( 0.1146495091478950817, 0.000000000000000000, 0.000000000000000000 ) ) ;
#146 = CIRCLE ( 'NONE', #168, 0.03225000000000000089 ) ;
#147 = VERTEX_POINT ( 'NONE', #273 ) ;
#148 = PRODUCT_DEFINITION_CONTEXT ( 'detailed design', #314, 'design' ) ;
#149 = AXIS2_PLACEMENT_3D ( 'NONE', #240, #295, #357 ) ;
#150 = DIMENSIONAL_EXPONENTS ( 1.000000000000000000, 0.000000000000000000, 0.000000000000000000, 0.000000000000000000, 0.000000000000000000, 0.000000000000000000, 0.000000000000000000 ) ;
#151 = AXIS2_PLACEMENT_3D ( 'NONE', #316, #232, #18 ) ;
#152 = FACE_OUTER_BOUND ( 'NONE', #270, .T. ) ;
#153 = ORIENTED_EDGE ( 'NONE', *, *, #121, .T. ) ;
#154 =( NAMED_UNIT ( * ) PLANE_ANGLE_UNIT ( ) SI_UNIT ( $, .RADIAN. ) );
#155 = AXIS2_PLACEMENT_3D ( 'NONE', #271, #210, #215 ) ;
#156 = ORIENTED_EDGE ( 'NONE', *, *, #286, .F. ) ;
#157 = EDGE_LOOP ( 'NONE', ( #315 ) ) ;
#158 = FACE_BOUND ( 'NONE', #233, .T. ) ;
#159 = EDGE_LOOP ( 'NONE', ( #130 ) ) ;
#160 =( NAMED_UNIT ( * ) PLANE_ANGLE_UNIT ( ) SI_UNIT ( $, .RADIAN. ) );
#161 = DIRECTION ( 'NONE',  ( 1.000000000000000000, 0.000000000000000000, 0.000000000000000000 ) ) ;
#162 = DIRECTION ( 'NONE',  ( -1.000000000000000000, 0.000000000000000000, 0.000000000000000000 ) ) ;
#163 = FACE_OUTER_BOUND ( 'NONE', #37, .T. ) ;
#164 = EDGE_LOOP ( 'NONE', ( #39 ) ) ;
#165 = SURFACE_STYLE_USAGE ( .BOTH. , #8 ) ;
#166 = CARTESIAN_POINT ( 'NONE',  ( 1.004250000000000087, 0.000000000000000000, 0.000000000000000000 ) ) ;
#167 = DIRECTION ( 'NONE',  ( -1.000000000000000000, 0.000000000000000000, 0.000000000000000000 ) ) ;
#168 = AXIS2_PLACEMENT_3D ( 'NONE', #252, #231, #289 ) ;
#169 = TOROIDAL_SURFACE ( 'NONE', #185, 0.03749999999999999861, 0.01399999999999966376 ) ;
#170 = DIRECTION ( 'NONE',  ( 0.000000000000000000, 0.000000000000000000, 1.000000000000000000 ) ) ;
#171 = FACE_OUTER_BOUND ( 'NONE', #58, .T. ) ;
#172 = CIRCLE ( 'NONE', #149, 0.02229685427572740061 ) ;
#173 = ADVANCED_FACE ( 'NONE', ( #12, #200 ), #2, .T. ) ;
#174 = FACE_OUTER_BOUND ( 'NONE', #364, .T. ) ;
#175 = AXIS2_PLACEMENT_3D ( 'NONE', #77, #47, #351 ) ;
#176 = DIRECTION ( 'NONE',  ( 1.000000000000000000, 0.000000000000000000, 0.000000000000000000 ) ) ;
#177 = TOROIDAL_SURFACE ( 'NONE', #206, 0.01350000551334616314, 0.01900000000000000300 ) ;
#178 = PRODUCT_DEFINITION ( 'UNKNOWN', '', #355, #148 ) ;
#179 = DIRECTION ( 'NONE',  ( -1.000000000000000000, -4.336808689942014847E-19, 1.543271059696420034E-33 ) ) ;
#180 = EDGE_LOOP ( 'NONE', ( #26 ) ) ;
#181 = CARTESIAN_POINT ( 'NONE',  ( 0.07067807367386122475, 0.000000000000000000, 0.02229685427572740061 ) ) ;
#182 = AXIS2_PLACEMENT_3D ( 'NONE', #104, #344, #52 ) ;
#183 = VERTEX_POINT ( 'NONE', #190 ) ;
#184 = AXIS2_PLACEMENT_3D ( 'NONE', #21, #23, #57 ) ;
#185 = AXIS2_PLACEMENT_3D ( 'NONE', #90, #92, #65 ) ;
#186 = CARTESIAN_POINT ( 'NONE',  ( 0.7161000000000000698, 0.000000000000000000, 0.03300000000000000155 ) ) ;
#187 = ORIENTED_EDGE ( 'NONE', *, *, #325, .F. ) ;
#188 = VERTEX_POINT ( 'NONE', #365 ) ;
#189 = ORIENTED_EDGE ( 'NONE', *, *, #34, .F. ) ;
#190 = CARTESIAN_POINT ( 'NONE',  ( 1.080000000000000071, 0.000000000000000000, 0.03225000000000000089 ) ) ;
#191 = ORIENTED_EDGE ( 'NONE', *, *, #251, .F. ) ;
#192 = LENGTH_MEASURE_WITH_UNIT ( LENGTH_MEASURE( 0.02539999999999999897 ), #376 );
#193 = DIRECTION ( 'NONE',  ( 0.000000000000000000, 0.000000000000000000, 1.000000000000000000 ) ) ;
#194 = EDGE_LOOP ( 'NONE', ( #345 ) ) ;
#195 = DIRECTION ( 'NONE',  ( -1.000000000000000000, 0.000000000000000000, 0.000000000000000000 ) ) ;
#196 = LENGTH_MEASURE_WITH_UNIT ( LENGTH_MEASURE( 0.02539999999999999897 ), #371 );
#197 = AXIS2_PLACEMENT_3D ( 'NONE', #144, #179, #302 ) ;
#198 = ORIENTED_EDGE ( 'NONE', *, *, #9, .F. ) ;
#199 = DIRECTION ( 'NONE',  ( -1.000000000000000000, 0.000000000000000000, 0.000000000000000000 ) ) ;
#200 = FACE_OUTER_BOUND ( 'NONE', #253, .T. ) ;
#201 =( NAMED_UNIT ( * ) PLANE_ANGLE_UNIT ( ) SI_UNIT ( $, .RADIAN. ) );
#202 = CONICAL_SURFACE ( 'NONE', #123, 0.02229685427572740061, 0.4176096532003674144 ) ;
#203 = ADVANCED_FACE ( 'NONE', ( #20 ), #230, .F. ) ;
#204 = CARTESIAN_POINT ( 'NONE',  ( 0.1146329403047135903, 0.000000000000000000, 0.000000000000000000 ) ) ;
#205 =( NAMED_UNIT ( * ) SI_UNIT ( $, .STERADIAN. ) SOLID_ANGLE_UNIT ( ) );
#206 = AXIS2_PLACEMENT_3D ( 'NONE', #145, #358, #114 ) ;
#207 = CARTESIAN_POINT ( 'NONE',  ( -0.9470000000000000639, 1.723560462112697110E-18, -4.268512490100409738E-18 ) ) ;
#208 = FACE_OUTER_BOUND ( 'NONE', #159, .T. ) ;
#209 = ORIENTED_EDGE ( 'NONE', *, *, #369, .F. ) ;
#210 = DIRECTION ( 'NONE',  ( -1.000000000000000000, 0.000000000000000000, 0.000000000000000000 ) ) ;
#211 = ORIENTED_EDGE ( 'NONE', *, *, #3, .F. ) ;
#212 = DIRECTION ( 'NONE',  ( -1.000000000000000000, 0.000000000000000000, 0.000000000000000000 ) ) ;
#213 = UNCERTAINTY_MEASURE_WITH_UNIT (LENGTH_MEASURE( 1.000000000000000082E-05 ), #30, 'distance_accuracy_value', 'NONE');
#214 = CIRCLE ( 'NONE', #389, 0.03300000000000000155 ) ;
#215 = DIRECTION ( 'NONE',  ( 0.000000000000000000, 0.000000000000000000, 1.000000000000000000 ) ) ;
#216 = AXIS2_PLACEMENT_3D ( 'NONE', #142, #266, #356 ) ;
#217 = EDGE_CURVE ( 'NONE', #247, #247, #375, .T. ) ;
#218 = DIMENSIONAL_EXPONENTS ( 1.000000000000000000, 0.000000000000000000, 0.000000000000000000, 0.000000000000000000, 0.000000000000000000, 0.000000000000000000, 0.000000000000000000 ) ;
#219 = VERTEX_POINT ( 'NONE', #181 ) ;
#220 = MANIFOLD_SOLID_BREP ( 'Combine1', #298 ) ;
#221 = APPLICATION_CONTEXT ( 'automotive_design' ) ;
#222 = FACE_OUTER_BOUND ( 'NONE', #72, .T. ) ;
#223 = CARTESIAN_POINT ( 'NONE',  ( -0.9367375989651536283, 0.0007619297139197909628, 0.01240161635074421217 ) ) ;
#224 = ADVANCED_FACE ( 'NONE', ( #297, #268 ), #129, .T. ) ;
#225 = ORIENTED_EDGE ( 'NONE', *, *, #259, .T. ) ;
#226 = AXIS2_PLACEMENT_3D ( 'NONE', #108, #288, #51 ) ;
#227 = PRESENTATION_STYLE_ASSIGNMENT (( #352 ) ) ;
#228 = ORIENTED_EDGE ( 'NONE', *, *, #217, .F. ) ;
#229 = APPLICATION_PROTOCOL_DEFINITION ( 'draft international standard', 'automotive_design', 1998, #221 ) ;
#230 = PLANE ( 'NONE',  #244 ) ;
#231 = DIRECTION ( 'NONE',  ( -1.000000000000000000, 0.000000000000000000, 0.000000000000000000 ) ) ;
#232 = DIRECTION ( 'NONE',  ( 1.000000000000000000, 0.000000000000000000, 0.000000000000000000 ) ) ;
#233 = EDGE_LOOP ( 'NONE', ( #388 ) ) ;
#234 = AXIS2_PLACEMENT_3D ( 'NONE', #319, #162, #287 ) ;
#235 = DIRECTION ( 'NONE',  ( 0.000000000000000000, 0.000000000000000000, 1.000000000000000000 ) ) ;
#236 = FILL_AREA_STYLE ('',( #350 ) ) ;
#237 = EDGE_CURVE ( 'NONE', #219, #219, #172, .T. ) ;
#238 = FACE_OUTER_BOUND ( 'NONE', #43, .T. ) ;
#239 = DIRECTION ( 'NONE',  ( 1.000000000000000000, 0.000000000000000000, 0.000000000000000000 ) ) ;
#240 = CARTESIAN_POINT ( 'NONE',  ( 0.07067807367386122475, 0.000000000000000000, 0.000000000000000000 ) ) ;
#241 = CIRCLE ( 'NONE', #347, 0.02064999999999999822 ) ;
#242 = CARTESIAN_POINT ( 'NONE',  ( 1.080000000000000071, 0.000000000000000000, 0.000000000000000000 ) ) ;
#243 = LENGTH_MEASURE_WITH_UNIT ( LENGTH_MEASURE( 0.02539999999999999897 ), #122 );
#244 = AXIS2_PLACEMENT_3D ( 'NONE', #107, #199, #193 ) ;
#245 = DIMENSIONAL_EXPONENTS ( 1.000000000000000000, 0.000000000000000000, 0.000000000000000000, 0.000000000000000000, 0.000000000000000000, 0.000000000000000000, 0.000000000000000000 ) ;
#246 = EDGE_LOOP ( 'NONE', ( #45 ) ) ;
#247 = VERTEX_POINT ( 'NONE', #68 ) ;
#248 = STYLED_ITEM ( 'NONE', ( #283 ), #294 ) ;
#249 = EDGE_LOOP ( 'NONE', ( #312 ) ) ;
#250 = DIRECTION ( 'NONE',  ( 0.000000000000000000, 0.000000000000000000, 1.000000000000000000 ) ) ;
#251 = EDGE_CURVE ( 'NONE', #188, #188, #85, .T. ) ;
#252 = CARTESIAN_POINT ( 'NONE',  ( 1.005000000000000115, 0.000000000000000000, 0.000000000000000000 ) ) ;
#253 = EDGE_LOOP ( 'NONE', ( #209 ) ) ;
#254 = PRODUCT_CONTEXT ( 'NONE', #221, 'mechanical' ) ;
#255 = ORIENTED_EDGE ( 'NONE', *, *, #103, .T. ) ;
#256 = SURFACE_STYLE_FILL_AREA ( #236 ) ;
#257 = DIRECTION ( 'NONE',  ( 0.000000000000000000, 0.06132231097945985143, 0.9981180161564755515 ) ) ;
#258 =( GEOMETRIC_REPRESENTATION_CONTEXT ( 3 ) GLOBAL_UNCERTAINTY_ASSIGNED_CONTEXT ( ( #31 ) ) GLOBAL_UNIT_ASSIGNED_CONTEXT ( ( #382, #201, #205 ) ) REPRESENTATION_CONTEXT ( 'NONE', 'WORKASPACE' ) );
#259 = EDGE_CURVE ( 'NONE', #341, #341, #241, .T. ) ;
#260 = FACE_OUTER_BOUND ( 'NONE', #69, .T. ) ;
#261 = DIRECTION ( 'NONE',  ( 1.000000000000000000, 0.000000000000000000, 0.000000000000000000 ) ) ;
#262 = DIRECTION ( 'NONE',  ( -1.000000000000000000, 0.000000000000000000, 0.000000000000000000 ) ) ;
#263 = SURFACE_SIDE_STYLE ('',( #256 ) ) ;
#264 = ADVANCED_FACE ( 'NONE', ( #335, #174 ), #27, .T. ) ;
#265 = CARTESIAN_POINT ( 'NONE',  ( 0.06400000000000000133, 0.000000000000000000, 0.000000000000000000 ) ) ;
#266 = DIRECTION ( 'NONE',  ( 1.000000000000000000, 0.000000000000000000, 0.000000000000000000 ) ) ;
#267 = CIRCLE ( 'NONE', #234, 0.02064999999999999822 ) ;
#268 = FACE_OUTER_BOUND ( 'NONE', #374, .T. ) ;
#269 = CARTESIAN_POINT ( 'NONE',  ( 0.1016088826688043290, 0.000000000000000000, 0.000000000000000000 ) ) ;
#270 = EDGE_LOOP ( 'NONE', ( #13 ) ) ;
#271 = CARTESIAN_POINT ( 'NONE',  ( 0.6880000000000000560, 0.000000000000000000, 0.000000000000000000 ) ) ;
#272 = CIRCLE ( 'NONE', #98, 0.02349999999999964617 ) ;
#273 = CARTESIAN_POINT ( 'NONE',  ( 0.1146329403047135903, 0.000000000000000000, 0.03249999828896153742 ) ) ;
#274 = CARTESIAN_POINT ( 'NONE',  ( 0.06967807367386122386, 0.000000000000000000, 0.000000000000000000 ) ) ;
#275 = AXIS2_PLACEMENT_3D ( 'NONE', #207, #87, #83 ) ;
#276 = AXIS2_PLACEMENT_3D ( 'NONE', #326, #137, #285 ) ;
#277 = VERTEX_POINT ( 'NONE', #40 ) ;
#278 = ADVANCED_FACE ( 'NONE', ( #54, #56 ), #177, .T. ) ;
#279 = VERTEX_POINT ( 'NONE', #311 ) ;
#280 = EDGE_LOOP ( 'NONE', ( #225 ) ) ;
#281 = DIRECTION ( 'NONE',  ( 1.000000000000000000, 0.000000000000000000, 0.000000000000000000 ) ) ;
#282 = EDGE_LOOP ( 'NONE', ( #115 ) ) ;
#283 = PRESENTATION_STYLE_ASSIGNMENT (( #165 ) ) ;
#284 = AXIS2_PLACEMENT_3D ( 'NONE', #204, #88, #113 ) ;
#285 = DIRECTION ( 'NONE',  ( 0.000000000000000000, 0.000000000000000000, 1.000000000000000000 ) ) ;
#286 = EDGE_CURVE ( 'NONE', #183, #183, #117, .T. ) ;
#287 = DIRECTION ( 'NONE',  ( 0.000000000000000000, 0.000000000000000000, 1.000000000000000000 ) ) ;
#288 = DIRECTION ( 'NONE',  ( -1.000000000000000000, 0.000000000000000000, 0.000000000000000000 ) ) ;
#289 = DIRECTION ( 'NONE',  ( 0.000000000000000000, 0.000000000000000000, 1.000000000000000000 ) ) ;
#290 = DIRECTION ( 'NONE',  ( 0.000000000000000000, 0.000000000000000000, 1.000000000000000000 ) ) ;
#291 = EDGE_CURVE ( 'NONE', #147, #147, #53, .T. ) ;
#292 = FACE_OUTER_BOUND ( 'NONE', #106, .T. ) ;
#293 = DIRECTION ( 'NONE',  ( 0.000000000000000000, 0.000000000000000000, 1.000000000000000000 ) ) ;
#294 = ADVANCED_BREP_SHAPE_REPRESENTATION ( '100-SD_251R5', ( #220, #175 ), #19 ) ;
#295 = DIRECTION ( 'NONE',  ( -1.000000000000000000, 0.000000000000000000, 0.000000000000000000 ) ) ;
#296 = COLOUR_RGB ( '',0.7529411764705882248, 0.7529411764705882248, 0.7529411764705882248 ) ;
#297 = FACE_OUTER_BOUND ( 'NONE', #194, .T. ) ;
#298 = CLOSED_SHELL ( 'NONE', ( #203, #136, #264, #118, #304, #387, #89, #359, #278, #143, #173, #340, #94, #80, #224, #299, #109 ) ) ;
#299 = ADVANCED_FACE ( 'NONE', ( #208 ), #140, .F. ) ;
#300 = DIRECTION ( 'NONE',  ( -1.000000000000000000, 0.000000000000000000, 0.000000000000000000 ) ) ;
#301 = AXIS2_PLACEMENT_3D ( 'NONE', #55, #176, #25 ) ;
#302 = DIRECTION ( 'NONE',  ( 0.000000000000000000, 0.06132231097945986531, 0.9981180161564755515 ) ) ;
#303 = CARTESIAN_POINT ( 'NONE',  ( 1.005000000000000115, 0.000000000000000000, 0.03225000000000000089 ) ) ;
#304 = ADVANCED_FACE ( 'NONE', ( #354, #111 ), #202, .T. ) ;
#305 = AXIS2_PLACEMENT_3D ( 'NONE', #44, #322, #235 ) ;
#306 = EDGE_LOOP ( 'NONE', ( #187 ) ) ;
#307 = VERTEX_POINT ( 'NONE', #35 ) ;
#308 = ORIENTED_EDGE ( 'NONE', *, *, #103, .F. ) ;
#309 = VERTEX_POINT ( 'NONE', #223 ) ;
#310 = PRODUCT_RELATED_PRODUCT_CATEGORY ( 'part', '', ( #60 ) ) ;
#311 = CARTESIAN_POINT ( 'NONE',  ( 0.07635614734772262768, 0.000000000000000000, 0.02350000000000000352 ) ) ;
#312 = ORIENTED_EDGE ( 'NONE', *, *, #383, .F. ) ;
#313 = CARTESIAN_POINT ( 'NONE',  ( -0.9470000000000000639, 0.0003985950213664911108, 0.006487767105017090696 ) ) ;
#314 = APPLICATION_CONTEXT ( 'automotive_design' ) ;
#315 = ORIENTED_EDGE ( 'NONE', *, *, #251, .T. ) ;
#316 = CARTESIAN_POINT ( 'NONE',  ( 0.6880000000000000560, 0.000000000000000000, 0.000000000000000000 ) ) ;
#317 = ORIENTED_EDGE ( 'NONE', *, *, #237, .T. ) ;
#318 = FACE_BOUND ( 'NONE', #28, .T. ) ;
#319 = CARTESIAN_POINT ( 'NONE',  ( 0.000000000000000000, 0.000000000000000000, 0.000000000000000000 ) ) ;
#320 = AXIS2_PLACEMENT_3D ( 'NONE', #135, #261, #378 ) ;
#321 = AXIS2_PLACEMENT_3D ( 'NONE', #242, #331, #293 ) ;
#322 = DIRECTION ( 'NONE',  ( -1.000000000000000000, 0.000000000000000000, 0.000000000000000000 ) ) ;
#323 = ORIENTED_EDGE ( 'NONE', *, *, #121, .F. ) ;
#324 = FACE_OUTER_BOUND ( 'NONE', #282, .T. ) ;
#325 = EDGE_CURVE ( 'NONE', #337, #337, #333, .T. ) ;
#326 = CARTESIAN_POINT ( 'NONE',  ( 0.7020499999999999519, 0.000000000000000000, 0.000000000000000000 ) ) ;
#327 = AXIS2_PLACEMENT_3D ( 'NONE', #139, #161, #78 ) ;
#328 = DIRECTION ( 'NONE',  ( -1.000000000000000000, 0.000000000000000000, 0.000000000000000000 ) ) ;
#329 = AXIS2_PLACEMENT_3D ( 'NONE', #274, #212, #62 ) ;
#330 = DIRECTION ( 'NONE',  ( 0.000000000000000000, 0.000000000000000000, 1.000000000000000000 ) ) ;
#331 = DIRECTION ( 'NONE',  ( -1.000000000000000000, 0.000000000000000000, 0.000000000000000000 ) ) ;
#332 = EDGE_CURVE ( 'NONE', #279, #279, #363, .T. ) ;
#333 = CIRCLE ( 'NONE', #197, 0.006500000000000004038 ) ;
#334 = ORIENTED_EDGE ( 'NONE', *, *, #217, .T. ) ;
#335 = FACE_OUTER_BOUND ( 'NONE', #280, .T. ) ;
#336 = EDGE_LOOP ( 'NONE', ( #74 ) ) ;
#337 = VERTEX_POINT ( 'NONE', #313 ) ;
#338 = TOROIDAL_SURFACE ( 'NONE', #384, 0.009500000000000001499, 0.01400000000000000203 ) ;
#339 = FACE_OUTER_BOUND ( 'NONE', #157, .T. ) ;
#340 = ADVANCED_FACE ( 'NONE', ( #238, #171 ), #22, .T. ) ;
#341 = VERTEX_POINT ( 'NONE', #119 ) ;
#342 = FACE_OUTER_BOUND ( 'NONE', #372, .T. ) ;
#343 = VERTEX_POINT ( 'NONE', #125 ) ;
#344 = DIRECTION ( 'NONE',  ( -1.000000000000000000, -0.000000000000000000, -0.000000000000000000 ) ) ;
#345 = ORIENTED_EDGE ( 'NONE', *, *, #63, .F. ) ;
#346 = SHAPE_DEFINITION_REPRESENTATION ( #33, #294 ) ;
#347 = AXIS2_PLACEMENT_3D ( 'NONE', #265, #300, #385 ) ;
#348 = CARTESIAN_POINT ( 'NONE',  ( 0.7161000000000000698, 0.000000000000000000, 0.000000000000000000 ) ) ;
#349 = FACE_OUTER_BOUND ( 'NONE', #246, .T. ) ;
#350 = FILL_AREA_STYLE_COLOUR ( '', #296 ) ;
#351 = DIRECTION ( 'NONE',  ( 1.000000000000000000, 0.000000000000000000, 0.000000000000000000 ) ) ;
#352 = SURFACE_STYLE_USAGE ( .BOTH. , #263 ) ;
#353 = CIRCLE ( 'NONE', #182, 0.01242500000000000028 ) ;
#354 = FACE_BOUND ( 'NONE', #249, .T. ) ;
#355 = PRODUCT_DEFINITION_FORMATION_WITH_SPECIFIED_SOURCE ( 'ANY', '', #60, .NOT_KNOWN. ) ;
#356 = DIRECTION ( 'NONE',  ( 0.000000000000000000, 0.000000000000000000, 1.000000000000000000 ) ) ;
#357 = DIRECTION ( 'NONE',  ( 0.000000000000000000, 0.000000000000000000, 1.000000000000000000 ) ) ;
#358 = DIRECTION ( 'NONE',  ( -1.000000000000000000, 0.000000000000000000, 0.000000000000000000 ) ) ;
#359 = ADVANCED_FACE ( 'NONE', ( #361, #339 ), #169, .F. ) ;
#360 = COLOUR_RGB ( '',0.7529411764705882248, 0.7529411764705882248, 0.7529411764705882248 ) ;
#361 = FACE_OUTER_BOUND ( 'NONE', #7, .T. ) ;
#362 = CONICAL_SURFACE ( 'NONE', #29, 0.01242500000000000895, 0.5235987755982992597 ) ;
#363 = CIRCLE ( 'NONE', #138, 0.02350000000000000352 ) ;
#364 = EDGE_LOOP ( 'NONE', ( #189 ) ) ;
#365 = CARTESIAN_POINT ( 'NONE',  ( 0.1016088826688043290, 0.000000000000000000, 0.02731818415717693002 ) ) ;
#366 = DIRECTION ( 'NONE',  ( -1.000000000000000000, 0.000000000000000000, 0.000000000000000000 ) ) ;
#367 = ORIENTED_EDGE ( 'NONE', *, *, #369, .T. ) ;
#368 = TOROIDAL_SURFACE ( 'NONE', #305, 0.03465000000000000024, 0.01400000000000000203 ) ;
#369 = EDGE_CURVE ( 'NONE', #277, #277, #38, .T. ) ;
#370 = EDGE_LOOP ( 'NONE', ( #156 ) ) ;
#371 =( LENGTH_UNIT ( ) NAMED_UNIT ( * ) SI_UNIT ( $, .METRE. ) );
#372 = EDGE_LOOP ( 'NONE', ( #96 ) ) ;
#373 = DIRECTION ( 'NONE',  ( 0.000000000000000000, -0.06132231097945985143, -0.9981180161564755515 ) ) ;
#374 = EDGE_LOOP ( 'NONE', ( #153 ) ) ;
#375 = CIRCLE ( 'NONE', #105, 0.03300000000000000155 ) ;
#376 =( LENGTH_UNIT ( ) NAMED_UNIT ( * ) SI_UNIT ( $, .METRE. ) );
#377 = CARTESIAN_POINT ( 'NONE',  ( 0.09199999999999999845, 0.000000000000000000, 0.000000000000000000 ) ) ;
#378 = DIRECTION ( 'NONE',  ( 0.000000000000000000, 0.000000000000000000, 1.000000000000000000 ) ) ;
#379 = CARTESIAN_POINT ( 'NONE',  ( -0.9367375989651536283, 1.728011069111454863E-18, -4.268512490100409738E-18 ) ) ;
#380 = CARTESIAN_POINT ( 'NONE',  ( 0.07067807367386122475, 0.000000000000000000, 0.000000000000000000 ) ) ;
#381 = PRESENTATION_LAYER_ASSIGNMENT (  '', '', ( #36 ) ) ;
#382 =( CONVERSION_BASED_UNIT ( 'INCH', #196 ) LENGTH_UNIT ( ) NAMED_UNIT ( #218 ) );
#383 = EDGE_CURVE ( 'NONE', #120, #120, #82, .T. ) ;
#384 = AXIS2_PLACEMENT_3D ( 'NONE', #1, #366, #250 ) ;
#385 = DIRECTION ( 'NONE',  ( 0.000000000000000000, 0.000000000000000000, 1.000000000000000000 ) ) ;
#386 = DIRECTION ( 'NONE',  ( -1.000000000000000000, 0.000000000000000000, 0.000000000000000000 ) ) ;
#387 = ADVANCED_FACE ( 'NONE', ( #152, #32 ), #338, .T. ) ;
#388 = ORIENTED_EDGE ( 'NONE', *, *, #3, .T. ) ;
#389 = AXIS2_PLACEMENT_3D ( 'NONE', #348, #195, #67 ) ;
ENDSEC;
END-ISO-10303-21;
