ISO-10303-21;
HEADER;
FILE_DESCRIPTION (( 'STEP AP214' ),
    '1' );
FILE_NAME ('100-SPR.STEP',
    '2020-09-28T13:42:25',
    ( '' ),
    ( '' ),
    'SwSTEP 2.0',
    'SolidWorks 2019',
    '' );
FILE_SCHEMA (( 'AUTOMOTIVE_DESIGN' ));
ENDSEC;

DATA;
#1 =( CONVERSION_BASED_UNIT ( 'INCH', #86 ) LENGTH_UNIT ( ) NAMED_UNIT ( #171 ) );
#2 = TOROIDAL_SURFACE ( 'NONE', #95, 0.004867857142867567342, 0.02203214285713540888 ) ;
#3 = DIRECTION ( 'NONE',  ( -1.000000000000000000, -0.0000000000000000000, -0.0000000000000000000 ) ) ;
#4 = CARTESIAN_POINT ( 'NONE',  ( 0.05219437830492220515, 0.0000000000000000000, -0.02497095588235306862 ) ) ;
#5 = DIRECTION ( 'NONE',  ( 0.0000000000000000000, 0.0000000000000000000, -1.000000000000000000 ) ) ;
#6 = MANIFOLD_SOLID_BREP ( 'Revolve Solid', #76 ) ;
#7 = AXIS2_PLACEMENT_3D ( 'NONE', #138, #137, #214 ) ;
#8 = PRODUCT ( '100-SPR', '100-SPR', '', ( #178 ) ) ;
#9 = EDGE_LOOP ( 'NONE', ( #89 ) ) ;
#10 = FACE_BOUND ( 'NONE', #45, .T. ) ;
#11 = DIRECTION ( 'NONE',  ( -1.000000000000000000, -0.0000000000000000000, -0.0000000000000000000 ) ) ;
#12 = CIRCLE ( 'NONE', #163, 0.01814999999999999947 ) ;
#13 = CIRCLE ( 'NONE', #14, 0.01850000000000008235 ) ;
#14 = AXIS2_PLACEMENT_3D ( 'NONE', #244, #88, #224 ) ;
#15 = CARTESIAN_POINT ( 'NONE',  ( 0.0000000000000000000, 0.0000000000000000000, 0.0000000000000000000 ) ) ;
#16 = CARTESIAN_POINT ( 'NONE',  ( 8.537024980200822558E-18, 0.0000000000000000000, 0.0000000000000000000 ) ) ;
#17 = ADVANCED_FACE ( 'NONE', ( #256, #10 ), #106, .T. ) ;
#18 = EDGE_CURVE ( 'NONE', #172, #172, #23, .T. ) ;
#19 = CARTESIAN_POINT ( 'NONE',  ( 0.05806582295863296772, 0.0000000000000000000, 0.0000000000000000000 ) ) ;
#20 = DIRECTION ( 'NONE',  ( 1.000000000000000000, -0.0000000000000000000, -0.0000000000000000000 ) ) ;
#21 = PRODUCT_DEFINITION_FORMATION_WITH_SPECIFIED_SOURCE ( 'ANY', '', #8, .NOT_KNOWN. ) ;
#22 = UNCERTAINTY_MEASURE_WITH_UNIT (LENGTH_MEASURE( 1.000000000000000082E-05 ), #257, 'distance_accuracy_value', 'NONE');
#23 = CIRCLE ( 'NONE', #264, 0.01455958441278087066 ) ;
#24 = CARTESIAN_POINT ( 'NONE',  ( 0.9951318987624022672, 0.0000000000000000000, 0.02088163117404550836 ) ) ;
#25 = ORIENTED_EDGE ( 'NONE', *, *, #210, .T. ) ;
#26 = AXIS2_PLACEMENT_3D ( 'NONE', #161, #73, #200 ) ;
#27 = AXIS2_PLACEMENT_3D ( 'NONE', #15, #31, #55 ) ;
#28 = FACE_OUTER_BOUND ( 'NONE', #9, .T. ) ;
#29 = VERTEX_POINT ( 'NONE', #4 ) ;
#30 =( NAMED_UNIT ( * ) PLANE_ANGLE_UNIT ( ) SI_UNIT ( $, .RADIAN. ) );
#31 = DIRECTION ( 'NONE',  ( 0.0000000000000000000, 0.0000000000000000000, 1.000000000000000000 ) ) ;
#32 = AXIS2_PLACEMENT_3D ( 'NONE', #70, #48, #127 ) ;
#33 = LENGTH_MEASURE_WITH_UNIT ( LENGTH_MEASURE( 0.02539999999999999897 ), #211 );
#34 = EDGE_LOOP ( 'NONE', ( #82 ) ) ;
#35 = CARTESIAN_POINT ( 'NONE',  ( 0.9799999999999999822, 0.0000000000000000000, 0.0000000000000000000 ) ) ;
#36 = FACE_OUTER_BOUND ( 'NONE', #223, .T. ) ;
#37 = AXIS2_PLACEMENT_3D ( 'NONE', #78, #197, #135 ) ;
#38 = CARTESIAN_POINT ( 'NONE',  ( 0.05000000000000000971, 0.0000000000000000000, 0.0000000000000000000 ) ) ;
#39 = FACE_OUTER_BOUND ( 'NONE', #245, .T. ) ;
#40 = DIRECTION ( 'NONE',  ( 0.0000000000000000000, 0.0000000000000000000, -1.000000000000000000 ) ) ;
#41 = TOROIDAL_SURFACE ( 'NONE', #99, 0.02794999999999999568, 0.003699999999999994092 ) ;
#42 = CIRCLE ( 'NONE', #219, 0.02497095588235306862 ) ;
#43 = MECHANICAL_DESIGN_GEOMETRIC_PRESENTATION_REPRESENTATION (  '', ( #220 ), #148 ) ;
#44 = EDGE_CURVE ( 'NONE', #183, #183, #63, .T. ) ;
#45 = EDGE_LOOP ( 'NONE', ( #92 ) ) ;
#46 = VERTEX_POINT ( 'NONE', #126 ) ;
#47 = CARTESIAN_POINT ( 'NONE',  ( 8.537024980200822558E-18, 0.0000000000000000000, -0.02424999999999999725 ) ) ;
#48 = DIRECTION ( 'NONE',  ( -1.000000000000000000, -0.0000000000000000000, -0.0000000000000000000 ) ) ;
#49 = TOROIDAL_SURFACE ( 'NONE', #196, 0.01700000000000047654, 0.009900000000001182160 ) ;
#50 = DIRECTION ( 'NONE',  ( 1.000000000000000000, -0.0000000000000000000, -0.0000000000000000000 ) ) ;
#51 = EDGE_LOOP ( 'NONE', ( #165 ) ) ;
#52 = STYLED_ITEM ( 'NONE', ( #130 ), #6 ) ;
#53 = SURFACE_SIDE_STYLE ('',( #189 ) ) ;
#54 = DIRECTION ( 'NONE',  ( -1.000000000000000000, -0.0000000000000000000, -0.0000000000000000000 ) ) ;
#55 = DIRECTION ( 'NONE',  ( 1.000000000000000000, 0.0000000000000000000, 0.0000000000000000000 ) ) ;
#56 = FACE_OUTER_BOUND ( 'NONE', #108, .T. ) ;
#57 = FACE_OUTER_BOUND ( 'NONE', #209, .T. ) ;
#58 = ADVANCED_FACE ( 'NONE', ( #207, #28 ), #252, .T. ) ;
#59 = CIRCLE ( 'NONE', #37, 0.02690000000000165523 ) ;
#60 = FACE_BOUND ( 'NONE', #170, .T. ) ;
#61 = LENGTH_MEASURE_WITH_UNIT ( LENGTH_MEASURE( 0.02539999999999999897 ), #162 );
#62 = ORIENTED_EDGE ( 'NONE', *, *, #250, .T. ) ;
#63 = CIRCLE ( 'NONE', #32, 0.02088163117404550836 ) ;
#64 = AXIS2_PLACEMENT_3D ( 'NONE', #258, #261, #235 ) ;
#65 = VERTEX_POINT ( 'NONE', #246 ) ;
#66 = EDGE_LOOP ( 'NONE', ( #102 ) ) ;
#67 = VERTEX_POINT ( 'NONE', #79 ) ;
#68 = FACE_OUTER_BOUND ( 'NONE', #71, .T. ) ;
#69 = ORIENTED_EDGE ( 'NONE', *, *, #18, .F. ) ;
#70 = CARTESIAN_POINT ( 'NONE',  ( 0.9951318987624022672, 0.0000000000000000000, 0.0000000000000000000 ) ) ;
#71 = EDGE_LOOP ( 'NONE', ( #176 ) ) ;
#72 = CYLINDRICAL_SURFACE ( 'NONE', #26, 0.01814999999999999947 ) ;
#73 = DIRECTION ( 'NONE',  ( -1.000000000000000000, -0.0000000000000000000, -0.0000000000000000000 ) ) ;
#74 = CARTESIAN_POINT ( 'NONE',  ( 0.9799999999999999822, 0.0000000000000000000, 0.0000000000000000000 ) ) ;
#75 = FACE_OUTER_BOUND ( 'NONE', #113, .T. ) ;
#76 = CLOSED_SHELL ( 'NONE', ( #254, #147, #153, #166, #17, #243, #241, #58, #80, #141, #103 ) ) ;
#77 = CIRCLE ( 'NONE', #146, 0.02425000000000000419 ) ;
#78 = CARTESIAN_POINT ( 'NONE',  ( 0.05806582295863296772, 0.0000000000000000000, 0.0000000000000000000 ) ) ;
#79 = CARTESIAN_POINT ( 'NONE',  ( 1.097118782217350930, 0.0000000000000000000, 0.01814999999999999947 ) ) ;
#80 = ADVANCED_FACE ( 'NONE', ( #68, #173 ), #41, .F. ) ;
#81 = EDGE_LOOP ( 'NONE', ( #190 ) ) ;
#82 = ORIENTED_EDGE ( 'NONE', *, *, #202, .F. ) ;
#83 = PRODUCT_DEFINITION_CONTEXT ( 'detailed design', #192, 'design' ) ;
#84 = VERTEX_POINT ( 'NONE', #267 ) ;
#85 = EDGE_LOOP ( 'NONE', ( #203 ) ) ;
#86 = LENGTH_MEASURE_WITH_UNIT ( LENGTH_MEASURE( 0.02539999999999999897 ), #186 );
#87 = FACE_OUTER_BOUND ( 'NONE', #222, .T. ) ;
#88 = DIRECTION ( 'NONE',  ( -1.000000000000000000, -0.0000000000000000000, -0.0000000000000000000 ) ) ;
#89 = ORIENTED_EDGE ( 'NONE', *, *, #228, .T. ) ;
#90 = CIRCLE ( 'NONE', #238, 0.02690000000000298402 ) ;
#91 = DIMENSIONAL_EXPONENTS ( 1.000000000000000000, 0.0000000000000000000, 0.0000000000000000000, 0.0000000000000000000, 0.0000000000000000000, 0.0000000000000000000, 0.0000000000000000000 ) ;
#92 = ORIENTED_EDGE ( 'NONE', *, *, #18, .T. ) ;
#93 = UNCERTAINTY_MEASURE_WITH_UNIT (LENGTH_MEASURE( 1.000000000000000082E-05 ), #251, 'distance_accuracy_value', 'NONE');
#94 = PRESENTATION_LAYER_ASSIGNMENT (  '', '', ( #52 ) ) ;
#95 = AXIS2_PLACEMENT_3D ( 'NONE', #35, #159, #96 ) ;
#96 = DIRECTION ( 'NONE',  ( 0.0000000000000000000, 0.0000000000000000000, 1.000000000000000000 ) ) ;
#97 = DIRECTION ( 'NONE',  ( 1.000000000000000000, -0.0000000000000000000, -0.0000000000000000000 ) ) ;
#98 = DIRECTION ( 'NONE',  ( 0.0000000000000000000, 0.0000000000000000000, -1.000000000000000000 ) ) ;
#99 = AXIS2_PLACEMENT_3D ( 'NONE', #229, #50, #154 ) ;
#100 = DIRECTION ( 'NONE',  ( 0.0000000000000000000, 0.0000000000000000000, -1.000000000000000000 ) ) ;
#101 = FACE_OUTER_BOUND ( 'NONE', #221, .T. ) ;
#102 = ORIENTED_EDGE ( 'NONE', *, *, #255, .F. ) ;
#103 = ADVANCED_FACE ( 'NONE', ( #87 ), #131, .F. ) ;
#104 =( NAMED_UNIT ( * ) PLANE_ANGLE_UNIT ( ) SI_UNIT ( $, .RADIAN. ) );
#105 = UNCERTAINTY_MEASURE_WITH_UNIT (LENGTH_MEASURE( 1.000000000000000082E-05 ), #1, 'distance_accuracy_value', 'NONE');
#106 = CONICAL_SURFACE ( 'NONE', #122, 0.01455958441278087066, 1.047197551196590526 ) ;
#107 = SURFACE_SIDE_STYLE ('',( #169 ) ) ;
#108 = EDGE_LOOP ( 'NONE', ( #225 ) ) ;
#109 = DIRECTION ( 'NONE',  ( 1.000000000000000000, -0.0000000000000000000, -0.0000000000000000000 ) ) ;
#110 = APPLICATION_PROTOCOL_DEFINITION ( 'draft international standard', 'automotive_design', 1998, #192 ) ;
#111 = CIRCLE ( 'NONE', #123, 0.02424999999999999725 ) ;
#112 =( GEOMETRIC_REPRESENTATION_CONTEXT ( 3 ) GLOBAL_UNCERTAINTY_ASSIGNED_CONTEXT ( ( #93 ) ) GLOBAL_UNIT_ASSIGNED_CONTEXT ( ( #251, #104, #128 ) ) REPRESENTATION_CONTEXT ( 'NONE', 'WORKASPACE' ) );
#113 = EDGE_LOOP ( 'NONE', ( #268 ) ) ;
#114 = FILL_AREA_STYLE_COLOUR ( '', #156 ) ;
#115 = TOROIDAL_SURFACE ( 'NONE', #260, 0.02815000000000000141, 0.01000000000000000888 ) ;
#116 = PLANE ( 'NONE',  #164 ) ;
#117 = COLOUR_RGB ( '',0.7529411764705882248, 0.7529411764705882248, 0.7529411764705882248 ) ;
#118 = DIRECTION ( 'NONE',  ( -0.0000000000000000000, 0.0000000000000000000, 1.000000000000000000 ) ) ;
#119 = CARTESIAN_POINT ( 'NONE',  ( 1.100000000000000089, 0.0000000000000000000, 0.0000000000000000000 ) ) ;
#120 = DIRECTION ( 'NONE',  ( 0.0000000000000000000, 0.0000000000000000000, 1.000000000000000000 ) ) ;
#121 = EDGE_LOOP ( 'NONE', ( #62 ) ) ;
#122 = AXIS2_PLACEMENT_3D ( 'NONE', #233, #3, #212 ) ;
#123 = AXIS2_PLACEMENT_3D ( 'NONE', #16, #263, #236 ) ;
#124 = ORIENTED_EDGE ( 'NONE', *, *, #140, .T. ) ;
#125 = CARTESIAN_POINT ( 'NONE',  ( 0.9799999999999999822, 0.0000000000000000000, 0.02690000000000298402 ) ) ;
#126 = CARTESIAN_POINT ( 'NONE',  ( 1.002000000000000224, 0.0000000000000000000, 0.01814999999999999947 ) ) ;
#127 = DIRECTION ( 'NONE',  ( 0.0000000000000000000, 0.0000000000000000000, 1.000000000000000000 ) ) ;
#128 =( NAMED_UNIT ( * ) SI_UNIT ( $, .STERADIAN. ) SOLID_ANGLE_UNIT ( ) );
#129 =( NAMED_UNIT ( * ) SI_UNIT ( $, .STERADIAN. ) SOLID_ANGLE_UNIT ( ) );
#130 = PRESENTATION_STYLE_ASSIGNMENT (( #231 ) ) ;
#131 = PLANE ( 'NONE',  #259 ) ;
#132 = AXIS2_PLACEMENT_3D ( 'NONE', #191, #109, #5 ) ;
#133 = ADVANCED_BREP_SHAPE_REPRESENTATION ( '100-SPR', ( #6, #27 ), #112 ) ;
#134 = CARTESIAN_POINT ( 'NONE',  ( 1.100000000000000089, 0.0000000000000000000, 0.0000000000000000000 ) ) ;
#135 = DIRECTION ( 'NONE',  ( 0.0000000000000000000, 0.0000000000000000000, -1.000000000000000000 ) ) ;
#136 = SHAPE_DEFINITION_REPRESENTATION ( #145, #133 ) ;
#137 = DIRECTION ( 'NONE',  ( 1.000000000000000000, 0.0000000000000000000, 0.0000000000000000000 ) ) ;
#138 = CARTESIAN_POINT ( 'NONE',  ( 1.097725000000000062, 0.0000000000000000000, 0.0000000000000000000 ) ) ;
#139 = AXIS2_PLACEMENT_3D ( 'NONE', #234, #54, #213 ) ;
#140 = EDGE_CURVE ( 'NONE', #46, #46, #12, .T. ) ;
#141 = ADVANCED_FACE ( 'NONE', ( #266, #262 ), #49, .T. ) ;
#142 = DIRECTION ( 'NONE',  ( 0.0000000000000000000, 0.0000000000000000000, 1.000000000000000000 ) ) ;
#143 = DIRECTION ( 'NONE',  ( 1.000000000000000000, -0.0000000000000000000, -0.0000000000000000000 ) ) ;
#144 = EDGE_LOOP ( 'NONE', ( #184 ) ) ;
#145 = PRODUCT_DEFINITION_SHAPE ( 'NONE', 'NONE',  #194 ) ;
#146 = AXIS2_PLACEMENT_3D ( 'NONE', #38, #20, #100 ) ;
#147 = ADVANCED_FACE ( 'NONE', ( #75, #39 ), #115, .F. ) ;
#148 =( GEOMETRIC_REPRESENTATION_CONTEXT ( 3 ) GLOBAL_UNCERTAINTY_ASSIGNED_CONTEXT ( ( #105 ) ) GLOBAL_UNIT_ASSIGNED_CONTEXT ( ( #1, #206, #150 ) ) REPRESENTATION_CONTEXT ( 'NONE', 'WORKASPACE' ) );
#149 = SURFACE_STYLE_USAGE ( .BOTH. , #107 ) ;
#150 =( NAMED_UNIT ( * ) SI_UNIT ( $, .STERADIAN. ) SOLID_ANGLE_UNIT ( ) );
#151 = CIRCLE ( 'NONE', #64, 0.01814999999999999947 ) ;
#152 = FILL_AREA_STYLE ('',( #114 ) ) ;
#153 = ADVANCED_FACE ( 'NONE', ( #181, #36 ), #2, .T. ) ;
#154 = DIRECTION ( 'NONE',  ( 0.0000000000000000000, 0.0000000000000000000, -1.000000000000000000 ) ) ;
#155 = DIMENSIONAL_EXPONENTS ( 1.000000000000000000, 0.0000000000000000000, 0.0000000000000000000, 0.0000000000000000000, 0.0000000000000000000, 0.0000000000000000000, 0.0000000000000000000 ) ;
#156 = COLOUR_RGB ( '',0.7529411764705882248, 0.7529411764705882248, 0.7529411764705882248 ) ;
#157 = CYLINDRICAL_SURFACE ( 'NONE', #139, 0.02690000000000289382 ) ;
#158 = CARTESIAN_POINT ( 'NONE',  ( 1.002000000000000224, 0.0000000000000000000, 0.0000000000000000000 ) ) ;
#159 = DIRECTION ( 'NONE',  ( -1.000000000000000000, -0.0000000000000000000, -0.0000000000000000000 ) ) ;
#160 = DIRECTION ( 'NONE',  ( 0.0000000000000000000, 0.0000000000000000000, 1.000000000000000000 ) ) ;
#161 = CARTESIAN_POINT ( 'NONE',  ( 0.0000000000000000000, 0.0000000000000000000, 0.0000000000000000000 ) ) ;
#162 =( LENGTH_UNIT ( ) NAMED_UNIT ( * ) SI_UNIT ( $, .METRE. ) );
#163 = AXIS2_PLACEMENT_3D ( 'NONE', #158, #180, #142 ) ;
#164 = AXIS2_PLACEMENT_3D ( 'NONE', #182, #195, #40 ) ;
#165 = ORIENTED_EDGE ( 'NONE', *, *, #247, .T. ) ;
#166 = ADVANCED_FACE ( 'NONE', ( #216 ), #116, .F. ) ;
#167 = ORIENTED_EDGE ( 'NONE', *, *, #140, .F. ) ;
#168 = VERTEX_POINT ( 'NONE', #248 ) ;
#169 = SURFACE_STYLE_FILL_AREA ( #269 ) ;
#170 = EDGE_LOOP ( 'NONE', ( #230 ) ) ;
#171 = DIMENSIONAL_EXPONENTS ( 1.000000000000000000, 0.0000000000000000000, 0.0000000000000000000, 0.0000000000000000000, 0.0000000000000000000, 0.0000000000000000000, 0.0000000000000000000 ) ;
#172 = VERTEX_POINT ( 'NONE', #253 ) ;
#173 = FACE_OUTER_BOUND ( 'NONE', #121, .T. ) ;
#174 = PRESENTATION_LAYER_ASSIGNMENT (  '', '', ( #220 ) ) ;
#175 = ORIENTED_EDGE ( 'NONE', *, *, #228, .F. ) ;
#176 = ORIENTED_EDGE ( 'NONE', *, *, #247, .F. ) ;
#177 = DIRECTION ( 'NONE',  ( -1.000000000000000000, -0.0000000000000000000, -0.0000000000000000000 ) ) ;
#178 = PRODUCT_CONTEXT ( 'NONE', #198, 'mechanical' ) ;
#179 = DIRECTION ( 'NONE',  ( -1.000000000000000000, -0.0000000000000000000, -0.0000000000000000000 ) ) ;
#180 = DIRECTION ( 'NONE',  ( -1.000000000000000000, -0.0000000000000000000, -0.0000000000000000000 ) ) ;
#181 = FACE_OUTER_BOUND ( 'NONE', #34, .T. ) ;
#182 = CARTESIAN_POINT ( 'NONE',  ( 6.402768735150616918E-18, 0.02725000000000118300, 0.0000000000000000000 ) ) ;
#183 = VERTEX_POINT ( 'NONE', #24 ) ;
#184 = ORIENTED_EDGE ( 'NONE', *, *, #210, .F. ) ;
#185 = FILL_AREA_STYLE_COLOUR ( '', #117 ) ;
#186 =( LENGTH_UNIT ( ) NAMED_UNIT ( * ) SI_UNIT ( $, .METRE. ) );
#187 = ORIENTED_EDGE ( 'NONE', *, *, #202, .T. ) ;
#188 = VERTEX_POINT ( 'NONE', #125 ) ;
#189 = SURFACE_STYLE_FILL_AREA ( #152 ) ;
#190 = ORIENTED_EDGE ( 'NONE', *, *, #240, .T. ) ;
#191 = CARTESIAN_POINT ( 'NONE',  ( 0.0000000000000000000, 0.0000000000000000000, 0.0000000000000000000 ) ) ;
#192 = APPLICATION_CONTEXT ( 'automotive_design' ) ;
#193 = EDGE_LOOP ( 'NONE', ( #187 ) ) ;
#194 = PRODUCT_DEFINITION ( 'UNKNOWN', '', #21, #83 ) ;
#195 = DIRECTION ( 'NONE',  ( 1.000000000000000000, 0.0000000000000000000, 0.0000000000000000000 ) ) ;
#196 = AXIS2_PLACEMENT_3D ( 'NONE', #19, #97, #98 ) ;
#197 = DIRECTION ( 'NONE',  ( 1.000000000000000000, -0.0000000000000000000, -0.0000000000000000000 ) ) ;
#198 = APPLICATION_CONTEXT ( 'automotive_design' ) ;
#199 = DIRECTION ( 'NONE',  ( -1.000000000000000000, 0.0000000000000000000, -0.0000000000000000000 ) ) ;
#200 = DIRECTION ( 'NONE',  ( 0.0000000000000000000, 0.0000000000000000000, 1.000000000000000000 ) ) ;
#201 = CARTESIAN_POINT ( 'NONE',  ( 0.05219437830492220515, 0.0000000000000000000, 0.0000000000000000000 ) ) ;
#202 = EDGE_CURVE ( 'NONE', #188, #188, #90, .T. ) ;
#203 = ORIENTED_EDGE ( 'NONE', *, *, #250, .F. ) ;
#204 = PRESENTATION_STYLE_ASSIGNMENT (( #149 ) ) ;
#205 = EDGE_LOOP ( 'NONE', ( #175 ) ) ;
#206 =( NAMED_UNIT ( * ) PLANE_ANGLE_UNIT ( ) SI_UNIT ( $, .RADIAN. ) );
#207 = FACE_OUTER_BOUND ( 'NONE', #85, .T. ) ;
#208 = VERTEX_POINT ( 'NONE', #47 ) ;
#209 = EDGE_LOOP ( 'NONE', ( #167 ) ) ;
#210 = EDGE_CURVE ( 'NONE', #168, #168, #59, .T. ) ;
#211 =( LENGTH_UNIT ( ) NAMED_UNIT ( * ) SI_UNIT ( $, .METRE. ) );
#212 = DIRECTION ( 'NONE',  ( 0.0000000000000000000, 0.0000000000000000000, 1.000000000000000000 ) ) ;
#213 = DIRECTION ( 'NONE',  ( 0.0000000000000000000, 0.0000000000000000000, 1.000000000000000000 ) ) ;
#214 = DIRECTION ( 'NONE',  ( 0.0000000000000000000, 0.0000000000000000000, -1.000000000000000000 ) ) ;
#215 = DIRECTION ( 'NONE',  ( 0.0000000000000000000, 0.0000000000000000000, -1.000000000000000000 ) ) ;
#216 = FACE_OUTER_BOUND ( 'NONE', #205, .T. ) ;
#217 = FACE_OUTER_BOUND ( 'NONE', #193, .T. ) ;
#218 =( GEOMETRIC_REPRESENTATION_CONTEXT ( 3 ) GLOBAL_UNCERTAINTY_ASSIGNED_CONTEXT ( ( #22 ) ) GLOBAL_UNIT_ASSIGNED_CONTEXT ( ( #257, #30, #129 ) ) REPRESENTATION_CONTEXT ( 'NONE', 'WORKASPACE' ) );
#219 = AXIS2_PLACEMENT_3D ( 'NONE', #201, #143, #215 ) ;
#220 = STYLED_ITEM ( 'NONE', ( #204 ), #133 ) ;
#221 = EDGE_LOOP ( 'NONE', ( #25 ) ) ;
#222 = EDGE_LOOP ( 'NONE', ( #69 ) ) ;
#223 = EDGE_LOOP ( 'NONE', ( #249 ) ) ;
#224 = DIRECTION ( 'NONE',  ( 0.0000000000000000000, 0.0000000000000000000, 1.000000000000000000 ) ) ;
#225 = ORIENTED_EDGE ( 'NONE', *, *, #255, .T. ) ;
#226 = DIRECTION ( 'NONE',  ( 0.0000000000000000000, 0.0000000000000000000, 1.000000000000000000 ) ) ;
#227 = APPLICATION_PROTOCOL_DEFINITION ( 'draft international standard', 'automotive_design', 1998, #198 ) ;
#228 = EDGE_CURVE ( 'NONE', #208, #208, #111, .T. ) ;
#229 = CARTESIAN_POINT ( 'NONE',  ( 0.05000000000000000971, 0.0000000000000000000, 0.0000000000000000000 ) ) ;
#230 = ORIENTED_EDGE ( 'NONE', *, *, #240, .F. ) ;
#231 = SURFACE_STYLE_USAGE ( .BOTH. , #53 ) ;
#232 = PRODUCT_RELATED_PRODUCT_CATEGORY ( 'part', '', ( #8 ) ) ;
#233 = CARTESIAN_POINT ( 'NONE',  ( 1.100000000000000089, 0.0000000000000000000, 0.0000000000000000000 ) ) ;
#234 = CARTESIAN_POINT ( 'NONE',  ( 0.0000000000000000000, 0.0000000000000000000, 0.0000000000000000000 ) ) ;
#235 = DIRECTION ( 'NONE',  ( 0.0000000000000000000, 0.0000000000000000000, 1.000000000000000000 ) ) ;
#236 = DIRECTION ( 'NONE',  ( 0.0000000000000000000, 0.0000000000000000000, -1.000000000000000000 ) ) ;
#237 = MECHANICAL_DESIGN_GEOMETRIC_PRESENTATION_REPRESENTATION (  '', ( #52 ), #218 ) ;
#238 = AXIS2_PLACEMENT_3D ( 'NONE', #74, #179, #120 ) ;
#239 = FACE_OUTER_BOUND ( 'NONE', #81, .T. ) ;
#240 = EDGE_CURVE ( 'NONE', #67, #67, #151, .T. ) ;
#241 = ADVANCED_FACE ( 'NONE', ( #57, #239 ), #72, .T. ) ;
#242 = CARTESIAN_POINT ( 'NONE',  ( 1.002000000000000224, 0.0000000000000000000, 0.0000000000000000000 ) ) ;
#243 = ADVANCED_FACE ( 'NONE', ( #60, #56 ), #265, .T. ) ;
#244 = CARTESIAN_POINT ( 'NONE',  ( 1.097725000000000062, 0.0000000000000000000, 0.0000000000000000000 ) ) ;
#245 = EDGE_LOOP ( 'NONE', ( #124 ) ) ;
#246 = CARTESIAN_POINT ( 'NONE',  ( 1.097725000000000062, 0.0000000000000000000, 0.01850000000000008235 ) ) ;
#247 = EDGE_CURVE ( 'NONE', #29, #29, #42, .T. ) ;
#248 = CARTESIAN_POINT ( 'NONE',  ( 0.05806582295863296772, 0.0000000000000000000, -0.02690000000000165523 ) ) ;
#249 = ORIENTED_EDGE ( 'NONE', *, *, #44, .T. ) ;
#250 = EDGE_CURVE ( 'NONE', #84, #84, #77, .T. ) ;
#251 =( CONVERSION_BASED_UNIT ( 'INCH', #61 ) LENGTH_UNIT ( ) NAMED_UNIT ( #91 ) );
#252 = CYLINDRICAL_SURFACE ( 'NONE', #132, 0.02425000000000000072 ) ;
#253 = CARTESIAN_POINT ( 'NONE',  ( 1.100000000000000089, 0.0000000000000000000, 0.01455958441278087066 ) ) ;
#254 = ADVANCED_FACE ( 'NONE', ( #217, #101 ), #157, .T. ) ;
#255 = EDGE_CURVE ( 'NONE', #65, #65, #13, .T. ) ;
#256 = FACE_OUTER_BOUND ( 'NONE', #66, .T. ) ;
#257 =( CONVERSION_BASED_UNIT ( 'INCH', #33 ) LENGTH_UNIT ( ) NAMED_UNIT ( #155 ) );
#258 = CARTESIAN_POINT ( 'NONE',  ( 1.097118782217350930, 0.0000000000000000000, 0.0000000000000000000 ) ) ;
#259 = AXIS2_PLACEMENT_3D ( 'NONE', #119, #199, #118 ) ;
#260 = AXIS2_PLACEMENT_3D ( 'NONE', #242, #11, #160 ) ;
#261 = DIRECTION ( 'NONE',  ( -1.000000000000000000, -0.0000000000000000000, -0.0000000000000000000 ) ) ;
#262 = FACE_OUTER_BOUND ( 'NONE', #51, .T. ) ;
#263 = DIRECTION ( 'NONE',  ( 1.000000000000000000, -0.0000000000000000000, -0.0000000000000000000 ) ) ;
#264 = AXIS2_PLACEMENT_3D ( 'NONE', #134, #177, #226 ) ;
#265 = CONICAL_SURFACE ( 'NONE', #7, 0.01850000000000008235, 0.5235987755983352310 ) ;
#266 = FACE_OUTER_BOUND ( 'NONE', #144, .T. ) ;
#267 = CARTESIAN_POINT ( 'NONE',  ( 0.05000000000000000971, 0.0000000000000000000, -0.02425000000000000419 ) ) ;
#268 = ORIENTED_EDGE ( 'NONE', *, *, #44, .F. ) ;
#269 = FILL_AREA_STYLE ('',( #185 ) ) ;
ENDSEC;
END-ISO-10303-21;
