ISO-10303-21;
HEADER;
FILE_DESCRIPTION (( 'STEP AP203' ),
    '1' );
FILE_NAME ('187-2510.STEP',
    '2020-08-05T14:00:41',
    ( '' ),
    ( '' ),
    'SwSTEP 2.0',
    'SolidWorks 2019',
    '' );
FILE_SCHEMA (( 'CONFIG_CONTROL_DESIGN' ));
ENDSEC;

DATA;
#1 =( LENGTH_UNIT ( ) NAMED_UNIT ( * ) SI_UNIT ( $, .METRE. ) );
#2 = ORIENTED_EDGE ( 'NONE', *, *, #50, .F. ) ;
#3 = CARTESIAN_POINT ( 'NONE',  ( -0.3499999999999999778, 0.0000000000000000000, -0.07749999999999999944 ) ) ;
#4 = AXIS2_PLACEMENT_3D ( 'NONE', #256, #39, #9 ) ;
#5 = VERTEX_POINT ( 'NONE', #28 ) ;
#6 = PERSON_AND_ORGANIZATION ( #260, #166 ) ;
#7 = DIRECTION ( 'NONE',  ( 0.0000000000000000000, 0.0000000000000000000, 1.000000000000000000 ) ) ;
#8 = APPROVAL ( #70, 'UNSPECIFIED' ) ;
#9 = DIRECTION ( 'NONE',  ( 0.0000000000000000000, 0.0000000000000000000, 1.000000000000000000 ) ) ;
#10 = EDGE_LOOP ( 'NONE', ( #2 ) ) ;
#11 = AXIS2_PLACEMENT_3D ( 'NONE', #216, #21, #314 ) ;
#12 = ORIENTED_EDGE ( 'NONE', *, *, #202, .F. ) ;
#13 = EDGE_LOOP ( 'NONE', ( #53 ) ) ;
#14 = CC_DESIGN_PERSON_AND_ORGANIZATION_ASSIGNMENT ( #24, #225, ( #97 ) ) ;
#15 = AXIS2_PLACEMENT_3D ( 'NONE', #279, #228, #307 ) ;
#16 = DIRECTION ( 'NONE',  ( -1.000000000000000000, -0.0000000000000000000, -0.0000000000000000000 ) ) ;
#17 = DIRECTION ( 'NONE',  ( 1.000000000000000000, -0.0000000000000000000, -0.0000000000000000000 ) ) ;
#18 = CC_DESIGN_DATE_AND_TIME_ASSIGNMENT ( #178, #105, ( #215 ) ) ;
#19 = LOCAL_TIME ( 10, 0, 41.00000000000000000, #25 ) ;
#20 = DIRECTION ( 'NONE',  ( 0.0000000000000000000, 0.0000000000000000000, -1.000000000000000000 ) ) ;
#21 = DIRECTION ( 'NONE',  ( -1.000000000000000000, 0.0000000000000000000, 0.0000000000000000000 ) ) ;
#22 = DIRECTION ( 'NONE',  ( 0.0000000000000000000, 0.0000000000000000000, 1.000000000000000000 ) ) ;
#23 = CC_DESIGN_PERSON_AND_ORGANIZATION_ASSIGNMENT ( #254, #156, ( #215 ) ) ;
#24 = PERSON_AND_ORGANIZATION ( #260, #166 ) ;
#25 = COORDINATED_UNIVERSAL_TIME_OFFSET ( 5, 0, .BEHIND. ) ;
#26 = EDGE_LOOP ( 'NONE', ( #197 ) ) ;
#27 = CONICAL_SURFACE ( 'NONE', #11, 0.04694949567953488057, 0.5235987755982441927 ) ;
#28 = CARTESIAN_POINT ( 'NONE',  ( 1.070000000000000062, 0.0000000000000000000, 0.04000000000000001471 ) ) ;
#29 = EDGE_LOOP ( 'NONE', ( #87 ) ) ;
#30 =( NAMED_UNIT ( * ) PLANE_ANGLE_UNIT ( ) SI_UNIT ( $, .RADIAN. ) );
#31 = LENGTH_MEASURE_WITH_UNIT ( LENGTH_MEASURE( 0.02539999999999999897 ), #1 );
#32 = PERSON_AND_ORGANIZATION_ROLE ( 'design_supplier' ) ;
#33 = ORIENTED_EDGE ( 'NONE', *, *, #145, .T. ) ;
#34 = ADVANCED_FACE ( 'NONE', ( #284 ), #158, .F. ) ;
#35 = CARTESIAN_POINT ( 'NONE',  ( 0.04499999999999999833, 0.0000000000000000000, 0.0000000000000000000 ) ) ;
#36 = EDGE_LOOP ( 'NONE', ( #12 ) ) ;
#37 = DIRECTION ( 'NONE',  ( 0.0000000000000000000, 0.0000000000000000000, -1.000000000000000000 ) ) ;
#38 = CARTESIAN_POINT ( 'NONE',  ( 1.070000000000000062, 0.04000000000000000083, 0.0000000000000000000 ) ) ;
#39 = DIRECTION ( 'NONE',  ( -1.000000000000000000, 0.0000000000000000000, 0.0000000000000000000 ) ) ;
#40 = DIRECTION ( 'NONE',  ( -1.000000000000000000, 0.0000000000000000000, 0.0000000000000000000 ) ) ;
#41 = PRODUCT_DEFINITION ( 'UNKNOWN', '', #298, #270 ) ;
#42 = FACE_OUTER_BOUND ( 'NONE', #13, .T. ) ;
#43 = DIRECTION ( 'NONE',  ( 0.0000000000000000000, 0.0000000000000000000, -1.000000000000000000 ) ) ;
#44 = FACE_OUTER_BOUND ( 'NONE', #283, .T. ) ;
#45 = CARTESIAN_POINT ( 'NONE',  ( 0.06340877246570830739, 0.0000000000000000000, -0.06224999999999999978 ) ) ;
#46 = CARTESIAN_POINT ( 'NONE',  ( -2.748074563752965890E-16, 0.0000000000000000000, -0.05800000000000000294 ) ) ;
#47 = APPLICATION_PROTOCOL_DEFINITION ( 'international standard', 'config_control_design', 1994, #74 ) ;
#48 = AXIS2_PLACEMENT_3D ( 'NONE', #35, #208, #110 ) ;
#49 = ORIENTED_EDGE ( 'NONE', *, *, #211, .T. ) ;
#50 = EDGE_CURVE ( 'NONE', #310, #310, #80, .T. ) ;
#51 = MECHANICAL_CONTEXT ( 'NONE', #74, 'mechanical' ) ;
#52 = CIRCLE ( 'NONE', #276, 0.06224999999999999978 ) ;
#53 = ORIENTED_EDGE ( 'NONE', *, *, #202, .T. ) ;
#54 = ORIENTED_EDGE ( 'NONE', *, *, #181, .F. ) ;
#55 = APPROVAL_DATE_TIME ( #251, #280 ) ;
#56 = DIRECTION ( 'NONE',  ( -1.000000000000000000, 0.0000000000000000000, -0.0000000000000000000 ) ) ;
#57 = CONICAL_SURFACE ( 'NONE', #4, 0.07533493649053892016, 0.5235987755982898229 ) ;
#58 = CALENDAR_DATE ( 2020, 5, 8 ) ;
#59 = CARTESIAN_POINT ( 'NONE',  ( -0.3499999999999999778, 0.07749999999999999944, 0.0000000000000000000 ) ) ;
#60 = EDGE_LOOP ( 'NONE', ( #33 ) ) ;
#61 = ADVANCED_FACE ( 'NONE', ( #203 ), #237, .T. ) ;
#62 = DIRECTION ( 'NONE',  ( 0.0000000000000000000, 0.0000000000000000000, -1.000000000000000000 ) ) ;
#63 = CIRCLE ( 'NONE', #15, 0.04694949567953488057 ) ;
#64 = CARTESIAN_POINT ( 'NONE',  ( 1.070000000000000062, 0.0000000000000000000, 0.0000000000000000000 ) ) ;
#65 = CIRCLE ( 'NONE', #288, 0.05800000000000000294 ) ;
#66 = FACE_OUTER_BOUND ( 'NONE', #10, .T. ) ;
#67 = FACE_OUTER_BOUND ( 'NONE', #81, .T. ) ;
#68 = ADVANCED_FACE ( 'NONE', ( #305, #159 ), #243, .T. ) ;
#69 = DIRECTION ( 'NONE',  ( 1.000000000000000000, -0.0000000000000000000, -0.0000000000000000000 ) ) ;
#70 = APPROVAL_STATUS ( 'not_yet_approved' ) ;
#71 = EDGE_LOOP ( 'NONE', ( #295 ) ) ;
#72 = PERSON_AND_ORGANIZATION ( #260, #166 ) ;
#73 = CC_DESIGN_PERSON_AND_ORGANIZATION_ASSIGNMENT ( #6, #32, ( #298 ) ) ;
#74 = APPLICATION_CONTEXT ( 'configuration controlled 3d designs of mechanical parts and assemblies' ) ;
#75 = CONICAL_SURFACE ( 'NONE', #172, 0.04725000000000004891, 0.0009999996594297342386 ) ;
#76 = ORIENTED_EDGE ( 'NONE', *, *, #88, .T. ) ;
#77 = ADVANCED_FACE ( 'NONE', ( #157, #207 ), #75, .T. ) ;
#78 = PERSON_AND_ORGANIZATION_ROLE ( 'creator' ) ;
#79 = AXIS2_PLACEMENT_3D ( 'NONE', #89, #241, #116 ) ;
#80 = CIRCLE ( 'NONE', #48, 0.05800000000000000294 ) ;
#81 = EDGE_LOOP ( 'NONE', ( #49 ) ) ;
#82 = DIRECTION ( 'NONE',  ( -0.0000000000000000000, 0.0000000000000000000, 1.000000000000000000 ) ) ;
#83 = PERSON_AND_ORGANIZATION ( #260, #166 ) ;
#84 = DIRECTION ( 'NONE',  ( 0.0000000000000000000, 0.0000000000000000000, -1.000000000000000000 ) ) ;
#85 = FACE_BOUND ( 'NONE', #235, .T. ) ;
#86 = LOCAL_TIME ( 10, 0, 41.00000000000000000, #206 ) ;
#87 = ORIENTED_EDGE ( 'NONE', *, *, #122, .T. ) ;
#88 = EDGE_CURVE ( 'NONE', #213, #213, #63, .T. ) ;
#89 = CARTESIAN_POINT ( 'NONE',  ( -0.2512500000000003064, 0.0000000000000000000, 0.0000000000000000000 ) ) ;
#90 = LOCAL_TIME ( 10, 0, 41.00000000000000000, #171 ) ;
#91 = FACE_OUTER_BOUND ( 'NONE', #36, .T. ) ;
#92 = CARTESIAN_POINT ( 'NONE',  ( -0.2701397827732847090, 0.0000000000000000000, 0.0000000000000000000 ) ) ;
#93 = DIRECTION ( 'NONE',  ( 0.0000000000000000000, 0.0000000000000000000, -1.000000000000000000 ) ) ;
#94 = DIRECTION ( 'NONE',  ( 0.0000000000000000000, 0.0000000000000000000, -1.000000000000000000 ) ) ;
#95 = AXIS2_PLACEMENT_3D ( 'NONE', #204, #107, #7 ) ;
#96 = APPROVAL_STATUS ( 'not_yet_approved' ) ;
#97 = PRODUCT ( '187-2510', '187-2510', '', ( #51 ) ) ;
#98 = CIRCLE ( 'NONE', #272, 0.06224999999999999978 ) ;
#99 = EDGE_CURVE ( 'NONE', #264, #264, #117, .T. ) ;
#100 = APPROVAL_DATE_TIME ( #318, #266 ) ;
#101 = CARTESIAN_POINT ( 'NONE',  ( -0.2512500000000003064, 0.0000000000000000000, 0.04911206351165454259 ) ) ;
#102 = ORIENTED_EDGE ( 'NONE', *, *, #196, .T. ) ;
#103 = CARTESIAN_POINT ( 'NONE',  ( 1.035417670697305503, 0.0000000000000000000, 0.06224999999999999978 ) ) ;
#104 = PERSON_AND_ORGANIZATION ( #260, #166 ) ;
#105 = DATE_TIME_ROLE ( 'classification_date' ) ;
#106 = EDGE_LOOP ( 'NONE', ( #180 ) ) ;
#107 = DIRECTION ( 'NONE',  ( -1.000000000000000000, -0.0000000000000000000, -0.0000000000000000000 ) ) ;
#108 = ADVANCED_FACE ( 'NONE', ( #309, #85 ), #57, .T. ) ;
#109 = EDGE_LOOP ( 'NONE', ( #249 ) ) ;
#110 = DIRECTION ( 'NONE',  ( 0.0000000000000000000, 0.0000000000000000000, -1.000000000000000000 ) ) ;
#111 = DIRECTION ( 'NONE',  ( 0.0000000000000000000, 0.0000000000000000000, -1.000000000000000000 ) ) ;
#112 = ADVANCED_FACE ( 'NONE', ( #177, #179 ), #135, .T. ) ;
#113 = VERTEX_POINT ( 'NONE', #301 ) ;
#114 = DIMENSIONAL_EXPONENTS ( 1.000000000000000000, 0.0000000000000000000, 0.0000000000000000000, 0.0000000000000000000, 0.0000000000000000000, 0.0000000000000000000, 0.0000000000000000000 ) ;
#115 = CARTESIAN_POINT ( 'NONE',  ( 1.035417670697305503, 0.0000000000000000000, 0.0000000000000000000 ) ) ;
#116 = DIRECTION ( 'NONE',  ( 0.0000000000000000000, 0.0000000000000000000, 1.000000000000000000 ) ) ;
#117 = CIRCLE ( 'NONE', #253, 0.04719700000038360571 ) ;
#118 = ADVANCED_FACE ( 'NONE', ( #303, #282 ), #292, .T. ) ;
#119 = CARTESIAN_POINT ( 'NONE',  ( 1.035417670697305503, 0.0000000000000000000, 0.0000000000000000000 ) ) ;
#120 = CARTESIAN_POINT ( 'NONE',  ( 0.0000000000000000000, 0.06224999999999988876, 0.0000000000000000000 ) ) ;
#121 = DIRECTION ( 'NONE',  ( 0.0000000000000000000, 0.0000000000000000000, 1.000000000000000000 ) ) ;
#122 = EDGE_CURVE ( 'NONE', #190, #190, #52, .T. ) ;
#123 = CALENDAR_DATE ( 2020, 5, 8 ) ;
#124 = ORIENTED_EDGE ( 'NONE', *, *, #145, .F. ) ;
#125 = APPROVAL_ROLE ( '' ) ;
#126 = ORIENTED_EDGE ( 'NONE', *, *, #99, .T. ) ;
#127 = APPROVAL_ROLE ( '' ) ;
#128 = DIRECTION ( 'NONE',  ( 1.000000000000000000, -0.0000000000000000000, -0.0000000000000000000 ) ) ;
#129 = APPROVAL_PERSON_ORGANIZATION ( #72, #266, #192 ) ;
#130 = CC_DESIGN_DATE_AND_TIME_ASSIGNMENT ( #316, #219, ( #41 ) ) ;
#131 = PERSON_AND_ORGANIZATION_ROLE ( 'creator' ) ;
#132 = CARTESIAN_POINT ( 'NONE',  ( 0.04499999999999999833, 0.0000000000000000000, 0.0000000000000000000 ) ) ;
#133 = ORIENTED_EDGE ( 'NONE', *, *, #211, .F. ) ;
#134 = DIRECTION ( 'NONE',  ( 0.0000000000000000000, 0.0000000000000000000, 1.000000000000000000 ) ) ;
#135 = CYLINDRICAL_SURFACE ( 'NONE', #95, 0.06224999999999994427 ) ;
#136 = CIRCLE ( 'NONE', #161, 0.07533493649053890628 ) ;
#137 = DIRECTION ( 'NONE',  ( 0.0000000000000000000, 0.0000000000000000000, 1.000000000000000000 ) ) ;
#138 = CIRCLE ( 'NONE', #278, 0.07749999999999999944 ) ;
#139 = CARTESIAN_POINT ( 'NONE',  ( -2.748074563752965890E-16, 0.0000000000000000000, 0.0000000000000000000 ) ) ;
#140 = PRODUCT_DEFINITION_SHAPE ( 'NONE', 'NONE',  #41 ) ;
#141 = CARTESIAN_POINT ( 'NONE',  ( -0.3499999999999999778, 0.0000000000000000000, 0.0000000000000000000 ) ) ;
#142 = ADVANCED_BREP_SHAPE_REPRESENTATION ( '187-2510', ( #275, #144 ), #234 ) ;
#143 = DIRECTION ( 'NONE',  ( 1.000000000000000000, -0.0000000000000000000, -0.0000000000000000000 ) ) ;
#144 = AXIS2_PLACEMENT_3D ( 'NONE', #224, #121, #271 ) ;
#145 = EDGE_CURVE ( 'NONE', #113, #113, #136, .T. ) ;
#146 = VERTEX_POINT ( 'NONE', #3 ) ;
#147 = CIRCLE ( 'NONE', #188, 0.07749999999999999944 ) ;
#148 = APPLICATION_CONTEXT ( 'configuration controlled 3d designs of mechanical parts and assemblies' ) ;
#149 = VERTEX_POINT ( 'NONE', #265 ) ;
#150 = SHAPE_DEFINITION_REPRESENTATION ( #140, #142 ) ;
#151 = EDGE_LOOP ( 'NONE', ( #133 ) ) ;
#152 = ORIENTED_EDGE ( 'NONE', *, *, #293, .T. ) ;
#153 = CC_DESIGN_PERSON_AND_ORGANIZATION_ASSIGNMENT ( #201, #78, ( #41 ) ) ;
#154 = CC_DESIGN_SECURITY_CLASSIFICATION ( #215, ( #298 ) ) ;
#155 = EDGE_LOOP ( 'NONE', ( #222 ) ) ;
#156 = PERSON_AND_ORGANIZATION_ROLE ( 'classification_officer' ) ;
#157 = FACE_BOUND ( 'NONE', #297, .T. ) ;
#158 = PLANE ( 'NONE',  #198 ) ;
#159 = FACE_BOUND ( 'NONE', #109, .T. ) ;
#160 = CARTESIAN_POINT ( 'NONE',  ( 0.0000000000000000000, 0.0000000000000000000, 0.0000000000000000000 ) ) ;
#161 = AXIS2_PLACEMENT_3D ( 'NONE', #187, #238, #93 ) ;
#162 = FACE_BOUND ( 'NONE', #268, .T. ) ;
#163 = ADVANCED_FACE ( 'NONE', ( #44, #287 ), #27, .T. ) ;
#164 = DIRECTION ( 'NONE',  ( -1.000000000000000000, 0.0000000000000000000, 0.0000000000000000000 ) ) ;
#165 = DIRECTION ( 'NONE',  ( 1.000000000000000000, -0.0000000000000000000, -0.0000000000000000000 ) ) ;
#166 = ORGANIZATION ( 'UNSPECIFIED', 'UNSPECIFIED', '' ) ;
#167 = DIRECTION ( 'NONE',  ( -1.000000000000000000, -0.0000000000000000000, -0.0000000000000000000 ) ) ;
#168 = VERTEX_POINT ( 'NONE', #101 ) ;
#169 = EDGE_LOOP ( 'NONE', ( #193 ) ) ;
#170 = EDGE_LOOP ( 'NONE', ( #182 ) ) ;
#171 = COORDINATED_UNIVERSAL_TIME_OFFSET ( 5, 0, .BEHIND. ) ;
#172 = AXIS2_PLACEMENT_3D ( 'NONE', #258, #128, #84 ) ;
#173 = ADVANCED_FACE ( 'NONE', ( #66, #42 ), #263, .T. ) ;
#174 = CARTESIAN_POINT ( 'NONE',  ( 0.0000000000000000000, 0.0000000000000000000, 0.0000000000000000000 ) ) ;
#175 = AXIS2_PLACEMENT_3D ( 'NONE', #120, #210, #20 ) ;
#176 = PERSON_AND_ORGANIZATION ( #260, #166 ) ;
#177 = FACE_OUTER_BOUND ( 'NONE', #29, .T. ) ;
#178 = DATE_AND_TIME ( #236, #86 ) ;
#179 = FACE_OUTER_BOUND ( 'NONE', #155, .T. ) ;
#180 = ORIENTED_EDGE ( 'NONE', *, *, #99, .F. ) ;
#181 = EDGE_CURVE ( 'NONE', #149, #149, #138, .T. ) ;
#182 = ORIENTED_EDGE ( 'NONE', *, *, #88, .F. ) ;
#183 = CARTESIAN_POINT ( 'NONE',  ( -0.3499999999999999778, 0.0000000000000000000, 0.0000000000000000000 ) ) ;
#184 = AXIS2_PLACEMENT_3D ( 'NONE', #183, #165, #43 ) ;
#185 = EDGE_CURVE ( 'NONE', #246, #246, #98, .T. ) ;
#186 = DIRECTION ( 'NONE',  ( -1.000000000000000000, -0.0000000000000000000, -0.0000000000000000000 ) ) ;
#187 = CARTESIAN_POINT ( 'NONE',  ( -0.2663897827732846779, 0.0000000000000000000, 0.0000000000000000000 ) ) ;
#188 = AXIS2_PLACEMENT_3D ( 'NONE', #141, #212, #94 ) ;
#189 = FACE_OUTER_BOUND ( 'NONE', #60, .T. ) ;
#190 = VERTEX_POINT ( 'NONE', #45 ) ;
#191 = AXIS2_PLACEMENT_3D ( 'NONE', #119, #186, #289 ) ;
#192 = APPROVAL_ROLE ( '' ) ;
#193 = ORIENTED_EDGE ( 'NONE', *, *, #122, .F. ) ;
#194 =( CONVERSION_BASED_UNIT ( 'INCH', #31 ) LENGTH_UNIT ( ) NAMED_UNIT ( #114 ) );
#195 = CC_DESIGN_APPROVAL ( #266, ( #298 ) ) ;
#196 = EDGE_CURVE ( 'NONE', #5, #5, #205, .T. ) ;
#197 = ORIENTED_EDGE ( 'NONE', *, *, #181, .T. ) ;
#198 = AXIS2_PLACEMENT_3D ( 'NONE', #38, #56, #82 ) ;
#199 = CC_DESIGN_APPROVAL ( #8, ( #41 ) ) ;
#200 =( NAMED_UNIT ( * ) SI_UNIT ( $, .STERADIAN. ) SOLID_ANGLE_UNIT ( ) );
#201 = PERSON_AND_ORGANIZATION ( #260, #166 ) ;
#202 = EDGE_CURVE ( 'NONE', #294, #294, #65, .T. ) ;
#203 = FACE_OUTER_BOUND ( 'NONE', #151, .T. ) ;
#204 = CARTESIAN_POINT ( 'NONE',  ( 0.0000000000000000000, 0.0000000000000000000, 0.0000000000000000000 ) ) ;
#205 = CIRCLE ( 'NONE', #306, 0.04000000000000001471 ) ;
#206 = COORDINATED_UNIVERSAL_TIME_OFFSET ( 5, 0, .BEHIND. ) ;
#207 = FACE_OUTER_BOUND ( 'NONE', #106, .T. ) ;
#208 = DIRECTION ( 'NONE',  ( 1.000000000000000000, -0.0000000000000000000, -0.0000000000000000000 ) ) ;
#209 = EDGE_LOOP ( 'NONE', ( #255 ) ) ;
#210 = DIRECTION ( 'NONE',  ( 1.000000000000000000, 0.0000000000000000000, 0.0000000000000000000 ) ) ;
#211 = EDGE_CURVE ( 'NONE', #146, #146, #147, .T. ) ;
#212 = DIRECTION ( 'NONE',  ( 1.000000000000000000, -0.0000000000000000000, -0.0000000000000000000 ) ) ;
#213 = VERTEX_POINT ( 'NONE', #313 ) ;
#214 = AXIS2_PLACEMENT_3D ( 'NONE', #132, #232, #111 ) ;
#215 = SECURITY_CLASSIFICATION ( '', '', #302 ) ;
#216 = CARTESIAN_POINT ( 'NONE',  ( -0.2475043226399544771, 0.0000000000000000000, 0.0000000000000000000 ) ) ;
#217 = CARTESIAN_POINT ( 'NONE',  ( 0.0000000000000000000, 0.0000000000000000000, -0.04719700000038360571 ) ) ;
#218 = CIRCLE ( 'NONE', #79, 0.04911206351165454259 ) ;
#219 = DATE_TIME_ROLE ( 'creation_date' ) ;
#220 = COORDINATED_UNIVERSAL_TIME_OFFSET ( 5, 0, .BEHIND. ) ;
#221 = DATE_AND_TIME ( #296, #299 ) ;
#222 = ORIENTED_EDGE ( 'NONE', *, *, #185, .T. ) ;
#223 = UNCERTAINTY_MEASURE_WITH_UNIT (LENGTH_MEASURE( 1.000000000000000082E-05 ), #194, 'distance_accuracy_value', 'NONE');
#224 = CARTESIAN_POINT ( 'NONE',  ( 0.0000000000000000000, 0.0000000000000000000, 0.0000000000000000000 ) ) ;
#225 = PERSON_AND_ORGANIZATION_ROLE ( 'design_owner' ) ;
#226 = EDGE_LOOP ( 'NONE', ( #54 ) ) ;
#227 = AXIS2_PLACEMENT_3D ( 'NONE', #261, #164, #290 ) ;
#228 = DIRECTION ( 'NONE',  ( 1.000000000000000000, -0.0000000000000000000, -0.0000000000000000000 ) ) ;
#229 = AXIS2_PLACEMENT_3D ( 'NONE', #59, #308, #134 ) ;
#230 = COORDINATED_UNIVERSAL_TIME_OFFSET ( 5, 0, .BEHIND. ) ;
#231 = LOCAL_TIME ( 10, 0, 41.00000000000000000, #230 ) ;
#232 = DIRECTION ( 'NONE',  ( 1.000000000000000000, -0.0000000000000000000, -0.0000000000000000000 ) ) ;
#233 = APPROVAL_PERSON_ORGANIZATION ( #176, #280, #127 ) ;
#234 =( GEOMETRIC_REPRESENTATION_CONTEXT ( 3 ) GLOBAL_UNCERTAINTY_ASSIGNED_CONTEXT ( ( #223 ) ) GLOBAL_UNIT_ASSIGNED_CONTEXT ( ( #194, #30, #200 ) ) REPRESENTATION_CONTEXT ( 'NONE', 'WORKASPACE' ) );
#235 = EDGE_LOOP ( 'NONE', ( #124 ) ) ;
#236 = CALENDAR_DATE ( 2020, 5, 8 ) ;
#237 = PLANE ( 'NONE',  #229 ) ;
#238 = DIRECTION ( 'NONE',  ( 1.000000000000000000, -0.0000000000000000000, -0.0000000000000000000 ) ) ;
#239 = ADVANCED_FACE ( 'NONE', ( #240, #91 ), #285, .F. ) ;
#240 = FACE_BOUND ( 'NONE', #247, .T. ) ;
#241 = DIRECTION ( 'NONE',  ( -1.000000000000000000, 0.0000000000000000000, 0.0000000000000000000 ) ) ;
#242 = CARTESIAN_POINT ( 'NONE',  ( 0.06340877246570830739, 0.0000000000000000000, 0.0000000000000000000 ) ) ;
#243 = CONICAL_SURFACE ( 'NONE', #214, 0.05800000000000000294, 0.2268928027592548302 ) ;
#244 = APPROVAL_PERSON_ORGANIZATION ( #104, #8, #125 ) ;
#245 = DIRECTION ( 'NONE',  ( 0.0000000000000000000, 0.0000000000000000000, -1.000000000000000000 ) ) ;
#246 = VERTEX_POINT ( 'NONE', #103 ) ;
#247 = EDGE_LOOP ( 'NONE', ( #126 ) ) ;
#248 = APPROVAL_DATE_TIME ( #221, #8 ) ;
#249 = ORIENTED_EDGE ( 'NONE', *, *, #50, .T. ) ;
#250 = AXIS2_PLACEMENT_3D ( 'NONE', #160, #143, #245 ) ;
#251 = DATE_AND_TIME ( #58, #231 ) ;
#252 = DIRECTION ( 'NONE',  ( 1.000000000000000000, 0.0000000000000000000, 0.0000000000000000000 ) ) ;
#253 = AXIS2_PLACEMENT_3D ( 'NONE', #174, #252, #37 ) ;
#254 = PERSON_AND_ORGANIZATION ( #260, #166 ) ;
#255 = ORIENTED_EDGE ( 'NONE', *, *, #185, .F. ) ;
#256 = CARTESIAN_POINT ( 'NONE',  ( -0.2663897827732846779, 0.0000000000000000000, 0.0000000000000000000 ) ) ;
#257 = ADVANCED_FACE ( 'NONE', ( #162, #189 ), #317, .T. ) ;
#258 = CARTESIAN_POINT ( 'NONE',  ( 0.05300000000000001932, 0.0000000000000000000, 0.0000000000000000000 ) ) ;
#259 = DIRECTION ( 'NONE',  ( 0.0000000000000000000, 0.0000000000000000000, -1.000000000000000000 ) ) ;
#260 = PERSON ( 'UNSPECIFIED', 'UNSPECIFIED', 'UNSPECIFIED', ('UNSPECIFIED'), ('UNSPECIFIED'), ('UNSPECIFIED') ) ;
#261 = CARTESIAN_POINT ( 'NONE',  ( -0.2499999999999999167, 0.0000000000000000000, 0.0000000000000000000 ) ) ;
#262 = FACE_OUTER_BOUND ( 'NONE', #26, .T. ) ;
#263 = CYLINDRICAL_SURFACE ( 'NONE', #250, 0.05800000000000000294 ) ;
#264 = VERTEX_POINT ( 'NONE', #217 ) ;
#265 = CARTESIAN_POINT ( 'NONE',  ( -0.2701397827732847090, 0.0000000000000000000, -0.07749999999999999944 ) ) ;
#266 = APPROVAL ( #96, 'UNSPECIFIED' ) ;
#267 = EDGE_LOOP ( 'NONE', ( #102 ) ) ;
#268 = EDGE_LOOP ( 'NONE', ( #152 ) ) ;
#269 = CLOSED_SHELL ( 'NONE', ( #118, #112, #239, #173, #68, #34, #77, #257, #304, #61, #163, #108 ) ) ;
#270 = DESIGN_CONTEXT ( 'detailed design', #148, 'design' ) ;
#271 = DIRECTION ( 'NONE',  ( 1.000000000000000000, 0.0000000000000000000, 0.0000000000000000000 ) ) ;
#272 = AXIS2_PLACEMENT_3D ( 'NONE', #115, #16, #137 ) ;
#273 = APPLICATION_PROTOCOL_DEFINITION ( 'international standard', 'config_control_design', 1994, #148 ) ;
#274 = CALENDAR_DATE ( 2020, 5, 8 ) ;
#275 = MANIFOLD_SOLID_BREP ( 'Combine1', #269 ) ;
#276 = AXIS2_PLACEMENT_3D ( 'NONE', #242, #17, #62 ) ;
#277 = ORIENTED_EDGE ( 'NONE', *, *, #293, .F. ) ;
#278 = AXIS2_PLACEMENT_3D ( 'NONE', #92, #40, #259 ) ;
#279 = CARTESIAN_POINT ( 'NONE',  ( -0.2475043226399544771, 0.0000000000000000000, 0.0000000000000000000 ) ) ;
#280 = APPROVAL ( #281, 'UNSPECIFIED' ) ;
#281 = APPROVAL_STATUS ( 'not_yet_approved' ) ;
#282 = FACE_OUTER_BOUND ( 'NONE', #267, .T. ) ;
#283 = EDGE_LOOP ( 'NONE', ( #277 ) ) ;
#284 = FACE_OUTER_BOUND ( 'NONE', #71, .T. ) ;
#285 = PLANE ( 'NONE',  #175 ) ;
#286 = CC_DESIGN_APPROVAL ( #280, ( #215 ) ) ;
#287 = FACE_BOUND ( 'NONE', #170, .T. ) ;
#288 = AXIS2_PLACEMENT_3D ( 'NONE', #139, #69, #315 ) ;
#289 = DIRECTION ( 'NONE',  ( 0.0000000000000000000, 0.0000000000000000000, 1.000000000000000000 ) ) ;
#290 = DIRECTION ( 'NONE',  ( 0.0000000000000000000, 0.0000000000000000000, 1.000000000000000000 ) ) ;
#291 = CARTESIAN_POINT ( 'NONE',  ( 0.04499999999999999833, 0.0000000000000000000, -0.05800000000000000294 ) ) ;
#292 = TOROIDAL_SURFACE ( 'NONE', #191, 0.02425000000000000419, 0.03800000000000000600 ) ;
#293 = EDGE_CURVE ( 'NONE', #168, #168, #218, .T. ) ;
#294 = VERTEX_POINT ( 'NONE', #46 ) ;
#295 = ORIENTED_EDGE ( 'NONE', *, *, #196, .F. ) ;
#296 = CALENDAR_DATE ( 2020, 5, 8 ) ;
#297 = EDGE_LOOP ( 'NONE', ( #76 ) ) ;
#298 = PRODUCT_DEFINITION_FORMATION_WITH_SPECIFIED_SOURCE ( 'ANY', '', #97, .NOT_KNOWN. ) ;
#299 = LOCAL_TIME ( 10, 0, 41.00000000000000000, #220 ) ;
#300 = CC_DESIGN_PERSON_AND_ORGANIZATION_ASSIGNMENT ( #83, #131, ( #298 ) ) ;
#301 = CARTESIAN_POINT ( 'NONE',  ( -0.2663897827732846779, 0.0000000000000000000, -0.07533493649053890628 ) ) ;
#302 = SECURITY_CLASSIFICATION_LEVEL ( 'unclassified' ) ;
#303 = FACE_OUTER_BOUND ( 'NONE', #209, .T. ) ;
#304 = ADVANCED_FACE ( 'NONE', ( #262, #67 ), #311, .T. ) ;
#305 = FACE_OUTER_BOUND ( 'NONE', #169, .T. ) ;
#306 = AXIS2_PLACEMENT_3D ( 'NONE', #64, #167, #22 ) ;
#307 = DIRECTION ( 'NONE',  ( 0.0000000000000000000, 0.0000000000000000000, -1.000000000000000000 ) ) ;
#308 = DIRECTION ( 'NONE',  ( -1.000000000000000000, 0.0000000000000000000, 0.0000000000000000000 ) ) ;
#309 = FACE_OUTER_BOUND ( 'NONE', #226, .T. ) ;
#310 = VERTEX_POINT ( 'NONE', #291 ) ;
#311 = CYLINDRICAL_SURFACE ( 'NONE', #184, 0.07749999999999999944 ) ;
#312 = PRODUCT_RELATED_PRODUCT_CATEGORY ( 'detail', '', ( #97 ) ) ;
#313 = CARTESIAN_POINT ( 'NONE',  ( -0.2475043226399544771, 0.0000000000000000000, -0.04694949567953488057 ) ) ;
#314 = DIRECTION ( 'NONE',  ( 0.0000000000000000000, 0.0000000000000000000, 1.000000000000000000 ) ) ;
#315 = DIRECTION ( 'NONE',  ( 0.0000000000000000000, 0.0000000000000000000, -1.000000000000000000 ) ) ;
#316 = DATE_AND_TIME ( #274, #90 ) ;
#317 = CONICAL_SURFACE ( 'NONE', #227, 0.04694700000219290126, 1.047197551196593635 ) ;
#318 = DATE_AND_TIME ( #123, #19 ) ;
ENDSEC;
END-ISO-10303-21;
