ISO-10303-21;
HEADER;
FILE_DESCRIPTION (( 'STEP AP214' ),
    '1' );
FILE_NAME ('ICS70 B1 P2P3A.STEP',
    '2025-01-17T15:11:44',
    ( '' ),
    ( '' ),
    'SwSTEP 2.0',
    'SolidWorks 2023',
    '' );
FILE_SCHEMA (( 'AUTOMOTIVE_DESIGN' ));
ENDSEC;

DATA;
#1 = ORIENTED_EDGE ( 'NONE', *, *, #148, .T. ) ;
#2 = DIRECTION ( 'NONE',  ( 1.000000000000000000, 0.000000000000000000, 0.000000000000000000 ) ) ;
#3 = DIRECTION ( 'NONE',  ( 1.000000000000000000, 0.000000000000000000, 0.000000000000000000 ) ) ;
#4 = ADVANCED_FACE ( 'NONE', ( #358, #331 ), #85, .T. ) ;
#5 = FACE_OUTER_BOUND ( 'NONE', #299, .T. ) ;
#6 = DIRECTION ( 'NONE',  ( 1.000000000000000000, 0.000000000000000000, 0.000000000000000000 ) ) ;
#7 = FACE_OUTER_BOUND ( 'NONE', #54, .T. ) ;
#8 = ORIENTED_EDGE ( 'NONE', *, *, #383, .T. ) ;
#9 = DIRECTION ( 'NONE',  ( 1.000000000000000000, 0.000000000000000000, 0.000000000000000000 ) ) ;
#10 = EDGE_LOOP ( 'NONE', ( #111 ) ) ;
#11 = CARTESIAN_POINT ( 'NONE',  ( 8.250000000000000000, 0.000000000000000000, -0.04000000000000160372 ) ) ;
#12 = ADVANCED_FACE ( 'NONE', ( #61, #326 ), #59, .T. ) ;
#13 = DIRECTION ( 'NONE',  ( 0.000000000000000000, 0.000000000000000000, -1.000000000000000000 ) ) ;
#14 = VERTEX_POINT ( 'NONE', #249 ) ;
#15 = DIRECTION ( 'NONE',  ( 1.000000000000000000, 0.000000000000000000, 0.000000000000000000 ) ) ;
#16 = VERTEX_POINT ( 'NONE', #134 ) ;
#17 = EDGE_CURVE ( 'NONE', #269, #269, #319, .T. ) ;
#18 = FACE_BOUND ( 'NONE', #294, .T. ) ;
#19 = DIRECTION ( 'NONE',  ( 1.000000000000000000, 0.000000000000000000, 0.000000000000000000 ) ) ;
#20 = EDGE_LOOP ( 'NONE', ( #135 ) ) ;
#21 = CIRCLE ( 'NONE', #169, 0.4449999999999999512 ) ;
#22 = EDGE_LOOP ( 'NONE', ( #74 ) ) ;
#23 = EDGE_LOOP ( 'NONE', ( #108 ) ) ;
#24 = ORIENTED_EDGE ( 'NONE', *, *, #215, .F. ) ;
#25 = ADVANCED_BREP_SHAPE_REPRESENTATION ( 'ICS70 B1 P2P3A', ( #313, #168 ), #310 ) ;
#26 = EDGE_CURVE ( 'NONE', #194, #194, #32, .T. ) ;
#27 = DIRECTION ( 'NONE',  ( 1.000000000000000000, 0.000000000000000000, 0.000000000000000000 ) ) ;
#28 = DIRECTION ( 'NONE',  ( 1.000000000000000000, 0.000000000000000000, 0.000000000000000000 ) ) ;
#29 = DIRECTION ( 'NONE',  ( 0.000000000000000000, 1.000000000000000000, 0.000000000000000000 ) ) ;
#30 = ORIENTED_EDGE ( 'NONE', *, *, #383, .F. ) ;
#31 = FACE_BOUND ( 'NONE', #248, .T. ) ;
#32 = CIRCLE ( 'NONE', #293, 0.6460000000000000187 ) ;
#33 = CARTESIAN_POINT ( 'NONE',  ( -4.826000000000000512, 0.000000000000000000, 0.000000000000000000 ) ) ;
#34 = FACE_BOUND ( 'NONE', #163, .T. ) ;
#35 = FACE_BOUND ( 'NONE', #171, .T. ) ;
#36 = CARTESIAN_POINT ( 'NONE',  ( 0.000000000000000000, 0.000000000000000000, 0.000000000000000000 ) ) ;
#37 =( GEOMETRIC_REPRESENTATION_CONTEXT ( 3 ) GLOBAL_UNCERTAINTY_ASSIGNED_CONTEXT ( ( #254 ) ) GLOBAL_UNIT_ASSIGNED_CONTEXT ( ( #184, #150, #122 ) ) REPRESENTATION_CONTEXT ( 'NONE', 'WORKASPACE' ) );
#38 = CYLINDRICAL_SURFACE ( 'NONE', #104, 0.6460000000000000187 ) ;
#39 = CARTESIAN_POINT ( 'NONE',  ( 0.07619999999999998996, 0.000000000000000000, -0.6460000000000000187 ) ) ;
#40 = CARTESIAN_POINT ( 'NONE',  ( 6.578600000000000669, 0.000000000000000000, 0.000000000000000000 ) ) ;
#41 = VERTEX_POINT ( 'NONE', #46 ) ;
#42 = AXIS2_PLACEMENT_3D ( 'NONE', #252, #151, #155 ) ;
#43 = FACE_OUTER_BOUND ( 'NONE', #208, .T. ) ;
#44 = CARTESIAN_POINT ( 'NONE',  ( -4.416632640943889854, 0.000000000000000000, -0.3435000000000000275 ) ) ;
#45 = DIRECTION ( 'NONE',  ( -1.000000000000000000, 0.000000000000000000, 0.000000000000000000 ) ) ;
#46 = CARTESIAN_POINT ( 'NONE',  ( 6.578600000000000669, 0.000000000000000000, -0.7284999999999999254 ) ) ;
#47 = ORIENTED_EDGE ( 'NONE', *, *, #51, .T. ) ;
#48 = AXIS2_PLACEMENT_3D ( 'NONE', #92, #94, #130 ) ;
#49 = ORIENTED_EDGE ( 'NONE', *, *, #139, .T. ) ;
#50 = AXIS2_PLACEMENT_3D ( 'NONE', #58, #267, #362 ) ;
#51 = EDGE_CURVE ( 'NONE', #340, #340, #56, .T. ) ;
#52 = FACE_OUTER_BOUND ( 'NONE', #22, .T. ) ;
#53 = AXIS2_PLACEMENT_3D ( 'NONE', #118, #241, #144 ) ;
#54 = EDGE_LOOP ( 'NONE', ( #238 ) ) ;
#55 = ORIENTED_EDGE ( 'NONE', *, *, #107, .F. ) ;
#56 = CIRCLE ( 'NONE', #115, 0.3180000000000000049 ) ;
#57 = CARTESIAN_POINT ( 'NONE',  ( 8.250000000000000000, 0.000000000000000000, 0.000000000000000000 ) ) ;
#58 = CARTESIAN_POINT ( 'NONE',  ( 0.000000000000000000, 0.000000000000000000, 0.000000000000000000 ) ) ;
#59 = CYLINDRICAL_SURFACE ( 'NONE', #231, 0.6460000000000000187 ) ;
#60 = CARTESIAN_POINT ( 'NONE',  ( 2.473316043908594608, 0.000000000000000000, 0.000000000000000000 ) ) ;
#61 = FACE_OUTER_BOUND ( 'NONE', #236, .T. ) ;
#62 = SURFACE_SIDE_STYLE ('',( #120 ) ) ;
#63 = DIRECTION ( 'NONE',  ( 0.000000000000000000, 0.000000000000000000, -1.000000000000000000 ) ) ;
#64 = DIRECTION ( 'NONE',  ( 1.000000000000000000, 0.000000000000000000, 0.000000000000000000 ) ) ;
#65 = CYLINDRICAL_SURFACE ( 'NONE', #289, 0.3180000000000000049 ) ;
#66 = CARTESIAN_POINT ( 'NONE',  ( -4.826000000000000512, 0.000000000000000000, 0.000000000000000000 ) ) ;
#67 = EDGE_CURVE ( 'NONE', #365, #365, #304, .T. ) ;
#68 = FACE_OUTER_BOUND ( 'NONE', #264, .T. ) ;
#69 = AXIS2_PLACEMENT_3D ( 'NONE', #60, #300, #146 ) ;
#70 = DIRECTION ( 'NONE',  ( -1.000000000000000000, 0.000000000000000000, 0.000000000000000000 ) ) ;
#71 = EDGE_LOOP ( 'NONE', ( #183 ) ) ;
#72 = DIRECTION ( 'NONE',  ( -1.000000000000000000, 0.000000000000000000, 0.000000000000000000 ) ) ;
#73 = VERTEX_POINT ( 'NONE', #39 ) ;
#74 = ORIENTED_EDGE ( 'NONE', *, *, #307, .T. ) ;
#75 = ADVANCED_FACE ( 'NONE', ( #360, #89 ), #175, .F. ) ;
#76 = ORIENTED_EDGE ( 'NONE', *, *, #139, .F. ) ;
#77 = PRODUCT_DEFINITION_FORMATION_WITH_SPECIFIED_SOURCE ( 'ANY', '', #351, .NOT_KNOWN. ) ;
#78 = EDGE_LOOP ( 'NONE', ( #198 ) ) ;
#79 = FACE_OUTER_BOUND ( 'NONE', #189, .T. ) ;
#80 = ORIENTED_EDGE ( 'NONE', *, *, #276, .T. ) ;
#81 = CIRCLE ( 'NONE', #50, 0.4704999999999999738 ) ;
#82 = DIRECTION ( 'NONE',  ( 1.000000000000000000, 0.000000000000000000, 0.000000000000000000 ) ) ;
#83 = DIRECTION ( 'NONE',  ( 0.000000000000000000, 1.000000000000000000, 0.000000000000000000 ) ) ;
#84 = ADVANCED_FACE ( 'NONE', ( #34, #5 ), #137, .T. ) ;
#85 = CYLINDRICAL_SURFACE ( 'NONE', #219, 0.7284999999999999254 ) ;
#86 = CARTESIAN_POINT ( 'NONE',  ( 7.971999999999999531, 0.000000000000000000, 0.000000000000000000 ) ) ;
#87 = DIRECTION ( 'NONE',  ( 0.000000000000000000, 0.000000000000000000, -1.000000000000000000 ) ) ;
#88 = CIRCLE ( 'NONE', #69, 0.6460000000000000187 ) ;
#89 = FACE_OUTER_BOUND ( 'NONE', #166, .T. ) ;
#90 = ADVANCED_FACE ( 'NONE', ( #177 ), #174, .T. ) ;
#91 = DIRECTION ( 'NONE',  ( 1.000000000000000000, 0.000000000000000000, 0.000000000000000000 ) ) ;
#92 = CARTESIAN_POINT ( 'NONE',  ( 0.07619999999999998996, 0.000000000000000000, 0.000000000000000000 ) ) ;
#93 = VERTEX_POINT ( 'NONE', #375 ) ;
#94 = DIRECTION ( 'NONE',  ( 1.000000000000000000, 0.000000000000000000, 0.000000000000000000 ) ) ;
#95 = CIRCLE ( 'NONE', #48, 0.6460000000000000187 ) ;
#96 = CARTESIAN_POINT ( 'NONE',  ( 6.603999999999999204, 0.000000000000000000, -0.7031000000000000583 ) ) ;
#97 = FACE_OUTER_BOUND ( 'NONE', #23, .T. ) ;
#98 = EDGE_CURVE ( 'NONE', #342, #342, #278, .T. ) ;
#99 = APPLICATION_PROTOCOL_DEFINITION ( 'draft international standard', 'automotive_design', 1998, #346 ) ;
#100 = AXIS2_PLACEMENT_3D ( 'NONE', #109, #232, #353 ) ;
#101 = VERTEX_POINT ( 'NONE', #11 ) ;
#102 = ORIENTED_EDGE ( 'NONE', *, *, #325, .T. ) ;
#103 = VERTEX_POINT ( 'NONE', #44 ) ;
#104 = AXIS2_PLACEMENT_3D ( 'NONE', #336, #220, #223 ) ;
#105 = EDGE_LOOP ( 'NONE', ( #30 ) ) ;
#106 = EDGE_LOOP ( 'NONE', ( #378 ) ) ;
#107 = EDGE_CURVE ( 'NONE', #101, #101, #376, .T. ) ;
#108 = ORIENTED_EDGE ( 'NONE', *, *, #51, .F. ) ;
#109 = CARTESIAN_POINT ( 'NONE',  ( 6.730999999999999872, 0.000000000000000000, 0.000000000000000000 ) ) ;
#110 = CARTESIAN_POINT ( 'NONE',  ( -0.1270000000000000018, 0.000000000000000000, 0.000000000000000000 ) ) ;
#111 = ORIENTED_EDGE ( 'NONE', *, *, #215, .T. ) ;
#112 = CIRCLE ( 'NONE', #153, 0.5697999999999889820 ) ;
#113 = FACE_OUTER_BOUND ( 'NONE', #71, .T. ) ;
#114 = ADVANCED_FACE ( 'NONE', ( #285 ), #258, .T. ) ;
#115 = AXIS2_PLACEMENT_3D ( 'NONE', #363, #141, #180 ) ;
#116 = EDGE_LOOP ( 'NONE', ( #217 ) ) ;
#117 = CARTESIAN_POINT ( 'NONE',  ( 2.616999999999999993, 0.000000000000000000, 0.000000000000000000 ) ) ;
#118 = CARTESIAN_POINT ( 'NONE',  ( 2.667000000000000259, 0.000000000000000000, 0.000000000000000000 ) ) ;
#119 = AXIS2_PLACEMENT_3D ( 'NONE', #40, #281, #367 ) ;
#120 = SURFACE_STYLE_FILL_AREA ( #185 ) ;
#121 = CARTESIAN_POINT ( 'NONE',  ( 0.07619999999999998996, 0.000000000000000000, 0.000000000000000000 ) ) ;
#122 =( NAMED_UNIT ( * ) SI_UNIT ( $, .STERADIAN. ) SOLID_ANGLE_UNIT ( ) );
#123 = FACE_BOUND ( 'NONE', #156, .T. ) ;
#124 = CARTESIAN_POINT ( 'NONE',  ( 3.429999999999999716, 0.6460000000000000187, 0.000000000000000000 ) ) ;
#125 = AXIS2_PLACEMENT_3D ( 'NONE', #124, #70, #187 ) ;
#126 = VERTEX_POINT ( 'NONE', #96 ) ;
#127 = DIRECTION ( 'NONE',  ( 0.000000000000000000, 0.000000000000000000, 1.000000000000000000 ) ) ;
#128 = CARTESIAN_POINT ( 'NONE',  ( 2.667000000000000259, 0.000000000000000000, -0.6460000000000000187 ) ) ;
#129 = TOROIDAL_SURFACE ( 'NONE', #373, 0.04000000000000155514, 0.2779999999999999694 ) ;
#130 = DIRECTION ( 'NONE',  ( 0.000000000000000000, 0.000000000000000000, -1.000000000000000000 ) ) ;
#131 = AXIS2_PLACEMENT_3D ( 'NONE', #121, #242, #321 ) ;
#132 =( NAMED_UNIT ( * ) SI_UNIT ( $, .STERADIAN. ) SOLID_ANGLE_UNIT ( ) );
#133 = FACE_OUTER_BOUND ( 'NONE', #138, .T. ) ;
#134 = CARTESIAN_POINT ( 'NONE',  ( 0.000000000000000000, 0.000000000000000000, -0.5697999999999889820 ) ) ;
#135 = ORIENTED_EDGE ( 'NONE', *, *, #17, .T. ) ;
#136 = ADVANCED_FACE ( 'NONE', ( #68, #247 ), #65, .T. ) ;
#137 = CONICAL_SURFACE ( 'NONE', #131, 0.6460000000000000187, 0.7853981633975238852 ) ;
#138 = EDGE_LOOP ( 'NONE', ( #347 ) ) ;
#139 = EDGE_CURVE ( 'NONE', #192, #192, #21, .T. ) ;
#140 = ORIENTED_EDGE ( 'NONE', *, *, #98, .T. ) ;
#141 = DIRECTION ( 'NONE',  ( 1.000000000000000000, 0.000000000000000000, 0.000000000000000000 ) ) ;
#142 = CONICAL_SURFACE ( 'NONE', #178, 0.7031000000000000583, 0.7853981633973755594 ) ;
#143 = DIRECTION ( 'NONE',  ( 0.000000000000000000, 0.000000000000000000, -1.000000000000000000 ) ) ;
#144 = DIRECTION ( 'NONE',  ( 0.000000000000000000, 0.000000000000000000, -1.000000000000000000 ) ) ;
#145 = PRESENTATION_LAYER_ASSIGNMENT (  '', '', ( #199 ) ) ;
#146 = DIRECTION ( 'NONE',  ( 0.000000000000000000, 0.000000000000000000, -1.000000000000000000 ) ) ;
#147 = CARTESIAN_POINT ( 'NONE',  ( 3.429999999999999716, 0.000000000000000000, 0.000000000000000000 ) ) ;
#148 = EDGE_CURVE ( 'NONE', #73, #73, #95, .T. ) ;
#149 = CARTESIAN_POINT ( 'NONE',  ( -0.1270000000000000018, 0.000000000000000000, 0.000000000000000000 ) ) ;
#150 =( NAMED_UNIT ( * ) PLANE_ANGLE_UNIT ( ) SI_UNIT ( $, .RADIAN. ) );
#151 = DIRECTION ( 'NONE',  ( 1.000000000000000000, 0.000000000000000000, 0.000000000000000000 ) ) ;
#152 = DIRECTION ( 'NONE',  ( 1.000000000000000000, 0.000000000000000000, 0.000000000000000000 ) ) ;
#153 = AXIS2_PLACEMENT_3D ( 'NONE', #36, #152, #272 ) ;
#154 = CLOSED_SHELL ( 'NONE', ( #165, #4, #225, #12, #366, #259, #344, #172, #84, #195, #75, #292, #114, #90, #263, #136, #246, #372 ) ) ;
#155 = DIRECTION ( 'NONE',  ( 0.000000000000000000, 0.000000000000000000, -1.000000000000000000 ) ) ;
#156 = EDGE_LOOP ( 'NONE', ( #261 ) ) ;
#157 = CARTESIAN_POINT ( 'NONE',  ( 3.429999999999999716, 0.000000000000000000, -0.6460000000000000187 ) ) ;
#158 = FACE_OUTER_BOUND ( 'NONE', #305, .T. ) ;
#159 =( NAMED_UNIT ( * ) PLANE_ANGLE_UNIT ( ) SI_UNIT ( $, .RADIAN. ) );
#160 = CARTESIAN_POINT ( 'NONE',  ( 0.000000000000000000, 0.000000000000000000, -0.4704999999999999738 ) ) ;
#161 = UNCERTAINTY_MEASURE_WITH_UNIT (LENGTH_MEASURE( 1.000000000000000082E-05 ), #256, 'distance_accuracy_value', 'NONE');
#162 = CARTESIAN_POINT ( 'NONE',  ( 6.603999999999999204, 0.000000000000000000, 0.000000000000000000 ) ) ;
#163 = EDGE_LOOP ( 'NONE', ( #102 ) ) ;
#164 = CARTESIAN_POINT ( 'NONE',  ( 0.000000000000000000, 0.000000000000000000, 0.000000000000000000 ) ) ;
#165 = ADVANCED_FACE ( 'NONE', ( #35, #158 ), #142, .T. ) ;
#166 = EDGE_LOOP ( 'NONE', ( #374 ) ) ;
#167 = DIRECTION ( 'NONE',  ( 0.000000000000000000, 0.000000000000000000, -1.000000000000000000 ) ) ;
#168 = AXIS2_PLACEMENT_3D ( 'NONE', #164, #286, #19 ) ;
#169 = AXIS2_PLACEMENT_3D ( 'NONE', #314, #308, #255 ) ;
#170 = FACE_OUTER_BOUND ( 'NONE', #173, .T. ) ;
#171 = EDGE_LOOP ( 'NONE', ( #320 ) ) ;
#172 = ADVANCED_FACE ( 'NONE', ( #244, #216 ), #38, .T. ) ;
#173 = EDGE_LOOP ( 'NONE', ( #55 ) ) ;
#174 = PLANE ( 'NONE',  #227 ) ;
#175 = TOROIDAL_SURFACE ( 'NONE', #355, 0.4704999999999999738, 0.1270000000000000018 ) ;
#176 = PRODUCT_RELATED_PRODUCT_CATEGORY ( 'part', '', ( #351 ) ) ;
#177 = FACE_OUTER_BOUND ( 'NONE', #106, .T. ) ;
#178 = AXIS2_PLACEMENT_3D ( 'NONE', #311, #45, #127 ) ;
#179 = CARTESIAN_POINT ( 'NONE',  ( 2.667000000000000259, 0.6844999999999999973, 0.000000000000000000 ) ) ;
#180 = DIRECTION ( 'NONE',  ( 0.000000000000000000, 0.000000000000000000, -1.000000000000000000 ) ) ;
#181 = CARTESIAN_POINT ( 'NONE',  ( 7.971999999999999531, 0.000000000000000000, 0.000000000000000000 ) ) ;
#182 = ORIENTED_EDGE ( 'NONE', *, *, #67, .T. ) ;
#183 = ORIENTED_EDGE ( 'NONE', *, *, #188, .T. ) ;
#184 =( LENGTH_UNIT ( ) NAMED_UNIT ( * ) SI_UNIT ( .MILLI., .METRE. ) );
#185 = FILL_AREA_STYLE ('',( #329 ) ) ;
#186 = DIRECTION ( 'NONE',  ( 1.000000000000000000, 0.000000000000000000, 0.000000000000000000 ) ) ;
#187 = DIRECTION ( 'NONE',  ( 0.000000000000000000, 0.000000000000000000, 1.000000000000000000 ) ) ;
#188 = EDGE_CURVE ( 'NONE', #126, #126, #260, .T. ) ;
#189 = EDGE_LOOP ( 'NONE', ( #204 ) ) ;
#190 = CARTESIAN_POINT ( 'NONE',  ( 6.730999999999999872, 0.000000000000000000, -0.3180000000000000049 ) ) ;
#191 = CARTESIAN_POINT ( 'NONE',  ( 0.000000000000000000, 0.4704999999999999738, 0.000000000000000000 ) ) ;
#192 = VERTEX_POINT ( 'NONE', #312 ) ;
#193 = EDGE_LOOP ( 'NONE', ( #80 ) ) ;
#194 = VERTEX_POINT ( 'NONE', #128 ) ;
#195 = ADVANCED_FACE ( 'NONE', ( #18, #133 ), #371, .T. ) ;
#196 = VERTEX_POINT ( 'NONE', #160 ) ;
#197 = ORIENTED_EDGE ( 'NONE', *, *, #307, .F. ) ;
#198 = ORIENTED_EDGE ( 'NONE', *, *, #276, .F. ) ;
#199 = STYLED_ITEM ( 'NONE', ( #306 ), #313 ) ;
#200 = EDGE_LOOP ( 'NONE', ( #1 ) ) ;
#201 = ORIENTED_EDGE ( 'NONE', *, *, #288, .T. ) ;
#202 = CYLINDRICAL_SURFACE ( 'NONE', #284, 0.6844999999999999973 ) ;
#203 = COLOUR_RGB ( '',0.7921568627450980005, 0.8196078431372548767, 0.9333333333333333481 ) ;
#204 = ORIENTED_EDGE ( 'NONE', *, *, #67, .F. ) ;
#205 = AXIS2_PLACEMENT_3D ( 'NONE', #57, #28, #143 ) ;
#206 = CARTESIAN_POINT ( 'NONE',  ( -4.826000000000000512, 0.000000000000000000, 0.000000000000000000 ) ) ;
#207 = CARTESIAN_POINT ( 'NONE',  ( 2.616999999999999993, 0.000000000000000000, 0.000000000000000000 ) ) ;
#208 = EDGE_LOOP ( 'NONE', ( #49 ) ) ;
#209 = DIRECTION ( 'NONE',  ( 1.000000000000000000, 0.000000000000000000, 0.000000000000000000 ) ) ;
#210 = DIRECTION ( 'NONE',  ( 0.000000000000000000, 0.000000000000000000, -1.000000000000000000 ) ) ;
#211 = AXIS2_PLACEMENT_3D ( 'NONE', #357, #2, #83 ) ;
#212 = CYLINDRICAL_SURFACE ( 'NONE', #318, 0.3435000000000000275 ) ;
#213 = AXIS2_PLACEMENT_3D ( 'NONE', #191, #72, #333 ) ;
#214 = DIRECTION ( 'NONE',  ( 0.000000000000000000, 0.000000000000000000, -1.000000000000000000 ) ) ;
#215 = EDGE_CURVE ( 'NONE', #103, #103, #296, .T. ) ;
#216 = FACE_OUTER_BOUND ( 'NONE', #105, .T. ) ;
#217 = ORIENTED_EDGE ( 'NONE', *, *, #98, .F. ) ;
#218 = VERTEX_POINT ( 'NONE', #282 ) ;
#219 = AXIS2_PLACEMENT_3D ( 'NONE', #206, #27, #210 ) ;
#220 = DIRECTION ( 'NONE',  ( 1.000000000000000000, 0.000000000000000000, 0.000000000000000000 ) ) ;
#221 = CARTESIAN_POINT ( 'NONE',  ( 3.429999999999999716, 0.000000000000000000, -0.7284999999999999254 ) ) ;
#222 = AXIS2_PLACEMENT_3D ( 'NONE', #162, #9, #339 ) ;
#223 = DIRECTION ( 'NONE',  ( 0.000000000000000000, 0.000000000000000000, -1.000000000000000000 ) ) ;
#224 = ORIENTED_EDGE ( 'NONE', *, *, #288, .F. ) ;
#225 = ADVANCED_FACE ( 'NONE', ( #279, #7 ), #315, .T. ) ;
#226 = SHAPE_DEFINITION_REPRESENTATION ( #370, #25 ) ;
#227 = AXIS2_PLACEMENT_3D ( 'NONE', #323, #265, #382 ) ;
#228 = EDGE_LOOP ( 'NONE', ( #384 ) ) ;
#229 = EDGE_LOOP ( 'NONE', ( #24 ) ) ;
#230 = CIRCLE ( 'NONE', #235, 0.6844999999999999973 ) ;
#231 = AXIS2_PLACEMENT_3D ( 'NONE', #33, #268, #328 ) ;
#232 = DIRECTION ( 'NONE',  ( 1.000000000000000000, 0.000000000000000000, 0.000000000000000000 ) ) ;
#233 = EDGE_CURVE ( 'NONE', #41, #41, #240, .T. ) ;
#234 = DIRECTION ( 'NONE',  ( 1.000000000000000000, 0.000000000000000000, 0.000000000000000000 ) ) ;
#235 = AXIS2_PLACEMENT_3D ( 'NONE', #117, #6, #87 ) ;
#236 = EDGE_LOOP ( 'NONE', ( #262 ) ) ;
#237 = PLANE ( 'NONE',  #211 ) ;
#238 = ORIENTED_EDGE ( 'NONE', *, *, #17, .F. ) ;
#239 = DIRECTION ( 'NONE',  ( 0.000000000000000000, 0.000000000000000000, -1.000000000000000000 ) ) ;
#240 = CIRCLE ( 'NONE', #119, 0.7284999999999999254 ) ;
#241 = DIRECTION ( 'NONE',  ( 1.000000000000000000, 0.000000000000000000, 0.000000000000000000 ) ) ;
#242 = DIRECTION ( 'NONE',  ( 1.000000000000000000, 0.000000000000000000, 0.000000000000000000 ) ) ;
#243 = DIRECTION ( 'NONE',  ( 0.000000000000000000, 0.000000000000000000, -1.000000000000000000 ) ) ;
#244 = FACE_OUTER_BOUND ( 'NONE', #200, .T. ) ;
#245 = FACE_OUTER_BOUND ( 'NONE', #290, .T. ) ;
#246 = ADVANCED_FACE ( 'NONE', ( #43, #97 ), #341, .F. ) ;
#247 = FACE_OUTER_BOUND ( 'NONE', #287, .T. ) ;
#248 = EDGE_LOOP ( 'NONE', ( #8 ) ) ;
#249 = CARTESIAN_POINT ( 'NONE',  ( 2.616999999999999993, 0.000000000000000000, -0.6844999999999999973 ) ) ;
#250 = CARTESIAN_POINT ( 'NONE',  ( -4.826000000000000512, 0.000000000000000000, 0.000000000000000000 ) ) ;
#251 = APPLICATION_CONTEXT ( 'automotive_design' ) ;
#252 = CARTESIAN_POINT ( 'NONE',  ( -4.416632640943889854, 0.000000000000000000, 0.000000000000000000 ) ) ;
#253 = APPLICATION_PROTOCOL_DEFINITION ( 'draft international standard', 'automotive_design', 1998, #251 ) ;
#254 = UNCERTAINTY_MEASURE_WITH_UNIT (LENGTH_MEASURE( 1.000000000000000082E-05 ), #184, 'distance_accuracy_value', 'NONE');
#255 = DIRECTION ( 'NONE',  ( 0.000000000000000000, 0.000000000000000000, -1.000000000000000000 ) ) ;
#256 =( LENGTH_UNIT ( ) NAMED_UNIT ( * ) SI_UNIT ( .MILLI., .METRE. ) );
#257 = AXIS2_PLACEMENT_3D ( 'NONE', #207, #327, #359 ) ;
#258 = TOROIDAL_SURFACE ( 'NONE', #270, -0.07218251042296200404, 0.4156825104229620038 ) ;
#259 = ADVANCED_FACE ( 'NONE', ( #381, #79 ), #202, .T. ) ;
#260 = CIRCLE ( 'NONE', #222, 0.7031000000000000583 ) ;
#261 = ORIENTED_EDGE ( 'NONE', *, *, #26, .F. ) ;
#262 = ORIENTED_EDGE ( 'NONE', *, *, #26, .T. ) ;
#263 = ADVANCED_FACE ( 'NONE', ( #52, #170 ), #129, .T. ) ;
#264 = EDGE_LOOP ( 'NONE', ( #47 ) ) ;
#265 = DIRECTION ( 'NONE',  ( 1.000000000000000000, 0.000000000000000000, 0.000000000000000000 ) ) ;
#266 = DIRECTION ( 'NONE',  ( 0.000000000000000000, 0.000000000000000000, -1.000000000000000000 ) ) ;
#267 = DIRECTION ( 'NONE',  ( 1.000000000000000000, 0.000000000000000000, 0.000000000000000000 ) ) ;
#268 = DIRECTION ( 'NONE',  ( 1.000000000000000000, 0.000000000000000000, 0.000000000000000000 ) ) ;
#269 = VERTEX_POINT ( 'NONE', #221 ) ;
#270 = AXIS2_PLACEMENT_3D ( 'NONE', #275, #15, #283 ) ;
#271 = CARTESIAN_POINT ( 'NONE',  ( 2.667000000000000259, 0.000000000000000000, 0.000000000000000000 ) ) ;
#272 = DIRECTION ( 'NONE',  ( 0.000000000000000000, 0.000000000000000000, -1.000000000000000000 ) ) ;
#273 = DIRECTION ( 'NONE',  ( 1.000000000000000000, 0.000000000000000000, 0.000000000000000000 ) ) ;
#274 = DIRECTION ( 'NONE',  ( 0.000000000000000000, 0.000000000000000000, -1.000000000000000000 ) ) ;
#275 = CARTESIAN_POINT ( 'NONE',  ( -4.416632640943889854, 0.000000000000000000, 0.000000000000000000 ) ) ;
#276 = EDGE_CURVE ( 'NONE', #14, #14, #230, .T. ) ;
#277 = FACE_OUTER_BOUND ( 'NONE', #78, .T. ) ;
#278 = CIRCLE ( 'NONE', #338, 0.3435000000000000275 ) ;
#279 = FACE_BOUND ( 'NONE', #349, .T. ) ;
#280 = CARTESIAN_POINT ( 'NONE',  ( 2.667000000000000259, 0.000000000000000000, -0.6844999999999999973 ) ) ;
#281 = DIRECTION ( 'NONE',  ( 1.000000000000000000, 0.000000000000000000, 0.000000000000000000 ) ) ;
#282 = CARTESIAN_POINT ( 'NONE',  ( 2.473316043908594608, 0.000000000000000000, -0.6460000000000000187 ) ) ;
#283 = DIRECTION ( 'NONE',  ( 0.000000000000000000, 0.000000000000000000, 1.000000000000000000 ) ) ;
#284 = AXIS2_PLACEMENT_3D ( 'NONE', #295, #324, #167 ) ;
#285 = FACE_OUTER_BOUND ( 'NONE', #229, .T. ) ;
#286 = DIRECTION ( 'NONE',  ( 0.000000000000000000, 0.000000000000000000, 1.000000000000000000 ) ) ;
#287 = EDGE_LOOP ( 'NONE', ( #197 ) ) ;
#288 = EDGE_CURVE ( 'NONE', #368, #368, #322, .T. ) ;
#289 = AXIS2_PLACEMENT_3D ( 'NONE', #250, #186, #13 ) ;
#290 = EDGE_LOOP ( 'NONE', ( #182 ) ) ;
#291 = ORIENTED_EDGE ( 'NONE', *, *, #148, .F. ) ;
#292 = ADVANCED_FACE ( 'NONE', ( #303, #332 ), #212, .T. ) ;
#293 = AXIS2_PLACEMENT_3D ( 'NONE', #271, #82, #266 ) ;
#294 = EDGE_LOOP ( 'NONE', ( #302 ) ) ;
#295 = CARTESIAN_POINT ( 'NONE',  ( -4.826000000000000512, 0.000000000000000000, 0.000000000000000000 ) ) ;
#296 = CIRCLE ( 'NONE', #42, 0.3435000000000000275 ) ;
#297 = DIRECTION ( 'NONE',  ( 1.000000000000000000, 0.000000000000000000, 0.000000000000000000 ) ) ;
#298 = DIRECTION ( 'NONE',  ( 1.000000000000000000, 0.000000000000000000, 0.000000000000000000 ) ) ;
#299 = EDGE_LOOP ( 'NONE', ( #291 ) ) ;
#300 = DIRECTION ( 'NONE',  ( 1.000000000000000000, 0.000000000000000000, 0.000000000000000000 ) ) ;
#301 = CONICAL_SURFACE ( 'NONE', #257, 0.6844999999999999973, 0.2617993877991492968 ) ;
#302 = ORIENTED_EDGE ( 'NONE', *, *, #361, .T. ) ;
#303 = FACE_OUTER_BOUND ( 'NONE', #10, .T. ) ;
#304 = CIRCLE ( 'NONE', #53, 0.6844999999999999973 ) ;
#305 = EDGE_LOOP ( 'NONE', ( #352 ) ) ;
#306 = PRESENTATION_STYLE_ASSIGNMENT (( #309 ) ) ;
#307 = EDGE_CURVE ( 'NONE', #93, #93, #335, .T. ) ;
#308 = DIRECTION ( 'NONE',  ( 1.000000000000000000, 0.000000000000000000, 0.000000000000000000 ) ) ;
#309 = SURFACE_STYLE_USAGE ( .BOTH. , #62 ) ;
#310 =( GEOMETRIC_REPRESENTATION_CONTEXT ( 3 ) GLOBAL_UNCERTAINTY_ASSIGNED_CONTEXT ( ( #161 ) ) GLOBAL_UNIT_ASSIGNED_CONTEXT ( ( #256, #159, #132 ) ) REPRESENTATION_CONTEXT ( 'NONE', 'WORKASPACE' ) );
#311 = CARTESIAN_POINT ( 'NONE',  ( 6.603999999999999204, 0.000000000000000000, 0.000000000000000000 ) ) ;
#312 = CARTESIAN_POINT ( 'NONE',  ( 6.603999999999999204, 0.000000000000000000, -0.4449999999999999512 ) ) ;
#313 = MANIFOLD_SOLID_BREP ( 'ICS70 B1 P2P3A.STEP<1>', #154 ) ;
#314 = CARTESIAN_POINT ( 'NONE',  ( 6.603999999999999204, 0.000000000000000000, 0.000000000000000000 ) ) ;
#315 = PLANE ( 'NONE',  #125 ) ;
#316 = MECHANICAL_DESIGN_GEOMETRIC_PRESENTATION_REPRESENTATION (  '', ( #199 ), #37 ) ;
#317 = PRODUCT_DEFINITION ( 'UNKNOWN', '', #77, #343 ) ;
#318 = AXIS2_PLACEMENT_3D ( 'NONE', #66, #3, #214 ) ;
#319 = CIRCLE ( 'NONE', #345, 0.7284999999999999254 ) ;
#320 = ORIENTED_EDGE ( 'NONE', *, *, #188, .F. ) ;
#321 = DIRECTION ( 'NONE',  ( 0.000000000000000000, 0.000000000000000000, -1.000000000000000000 ) ) ;
#322 = CIRCLE ( 'NONE', #330, 0.6460000000000000187 ) ;
#323 = CARTESIAN_POINT ( 'NONE',  ( 8.250000000000000000, 0.04000000000000160372, 0.000000000000000000 ) ) ;
#324 = DIRECTION ( 'NONE',  ( 1.000000000000000000, 0.000000000000000000, 0.000000000000000000 ) ) ;
#325 = EDGE_CURVE ( 'NONE', #16, #16, #112, .T. ) ;
#326 = FACE_OUTER_BOUND ( 'NONE', #380, .T. ) ;
#327 = DIRECTION ( 'NONE',  ( 1.000000000000000000, 0.000000000000000000, 0.000000000000000000 ) ) ;
#328 = DIRECTION ( 'NONE',  ( 0.000000000000000000, 0.000000000000000000, -1.000000000000000000 ) ) ;
#329 = FILL_AREA_STYLE_COLOUR ( '', #203 ) ;
#330 = AXIS2_PLACEMENT_3D ( 'NONE', #334, #209, #274 ) ;
#331 = FACE_OUTER_BOUND ( 'NONE', #228, .T. ) ;
#332 = FACE_OUTER_BOUND ( 'NONE', #116, .T. ) ;
#333 = DIRECTION ( 'NONE',  ( 0.000000000000000000, 0.000000000000000000, 1.000000000000000000 ) ) ;
#334 = CARTESIAN_POINT ( 'NONE',  ( 3.429999999999999716, 0.000000000000000000, 0.000000000000000000 ) ) ;
#335 = CIRCLE ( 'NONE', #379, 0.3180000000000000049 ) ;
#336 = CARTESIAN_POINT ( 'NONE',  ( -4.826000000000000512, 0.000000000000000000, 0.000000000000000000 ) ) ;
#337 = CARTESIAN_POINT ( 'NONE',  ( -0.1270000000000000018, 0.000000000000000000, -0.3435000000000000275 ) ) ;
#338 = AXIS2_PLACEMENT_3D ( 'NONE', #110, #234, #354 ) ;
#339 = DIRECTION ( 'NONE',  ( 0.000000000000000000, 0.000000000000000000, -1.000000000000000000 ) ) ;
#340 = VERTEX_POINT ( 'NONE', #190 ) ;
#341 = TOROIDAL_SURFACE ( 'NONE', #100, 0.4449999999999999512, 0.1270000000000000018 ) ;
#342 = VERTEX_POINT ( 'NONE', #337 ) ;
#343 = PRODUCT_DEFINITION_CONTEXT ( 'detailed design', #346, 'design' ) ;
#344 = ADVANCED_FACE ( 'NONE', ( #31, #277 ), #301, .T. ) ;
#345 = AXIS2_PLACEMENT_3D ( 'NONE', #147, #297, #63 ) ;
#346 = APPLICATION_CONTEXT ( 'automotive_design' ) ;
#347 = ORIENTED_EDGE ( 'NONE', *, *, #325, .F. ) ;
#348 = EDGE_LOOP ( 'NONE', ( #140 ) ) ;
#349 = EDGE_LOOP ( 'NONE', ( #201 ) ) ;
#350 = AXIS2_PLACEMENT_3D ( 'NONE', #179, #298, #29 ) ;
#351 = PRODUCT ( 'ICS70 B1 P2P3A', 'ICS70 B1 P2P3A', '', ( #369 ) ) ;
#352 = ORIENTED_EDGE ( 'NONE', *, *, #233, .T. ) ;
#353 = DIRECTION ( 'NONE',  ( 0.000000000000000000, 0.000000000000000000, -1.000000000000000000 ) ) ;
#354 = DIRECTION ( 'NONE',  ( 0.000000000000000000, 0.000000000000000000, -1.000000000000000000 ) ) ;
#355 = AXIS2_PLACEMENT_3D ( 'NONE', #149, #273, #356 ) ;
#356 = DIRECTION ( 'NONE',  ( 0.000000000000000000, 0.000000000000000000, -1.000000000000000000 ) ) ;
#357 = CARTESIAN_POINT ( 'NONE',  ( 6.603999999999999204, 0.7031000000000000583, 0.000000000000000000 ) ) ;
#358 = FACE_OUTER_BOUND ( 'NONE', #20, .T. ) ;
#359 = DIRECTION ( 'NONE',  ( 0.000000000000000000, 0.000000000000000000, -1.000000000000000000 ) ) ;
#360 = FACE_OUTER_BOUND ( 'NONE', #348, .T. ) ;
#361 = EDGE_CURVE ( 'NONE', #196, #196, #81, .T. ) ;
#362 = DIRECTION ( 'NONE',  ( 0.000000000000000000, 0.000000000000000000, -1.000000000000000000 ) ) ;
#363 = CARTESIAN_POINT ( 'NONE',  ( 6.730999999999999872, 0.000000000000000000, 0.000000000000000000 ) ) ;
#364 = PLANE ( 'NONE',  #350 ) ;
#365 = VERTEX_POINT ( 'NONE', #280 ) ;
#366 = ADVANCED_FACE ( 'NONE', ( #123, #245 ), #364, .T. ) ;
#367 = DIRECTION ( 'NONE',  ( 0.000000000000000000, 0.000000000000000000, -1.000000000000000000 ) ) ;
#368 = VERTEX_POINT ( 'NONE', #157 ) ;
#369 = PRODUCT_CONTEXT ( 'NONE', #251, 'mechanical' ) ;
#370 = PRODUCT_DEFINITION_SHAPE ( 'NONE', 'NONE',  #317 ) ;
#371 = PLANE ( 'NONE',  #213 ) ;
#372 = ADVANCED_FACE ( 'NONE', ( #385, #113 ), #237, .T. ) ;
#373 = AXIS2_PLACEMENT_3D ( 'NONE', #181, #91, #239 ) ;
#374 = ORIENTED_EDGE ( 'NONE', *, *, #361, .F. ) ;
#375 = CARTESIAN_POINT ( 'NONE',  ( 7.971999999999999531, 0.000000000000000000, -0.3180000000000000049 ) ) ;
#376 = CIRCLE ( 'NONE', #205, 0.04000000000000160372 ) ;
#377 = EDGE_LOOP ( 'NONE', ( #76 ) ) ;
#378 = ORIENTED_EDGE ( 'NONE', *, *, #107, .T. ) ;
#379 = AXIS2_PLACEMENT_3D ( 'NONE', #86, #64, #243 ) ;
#380 = EDGE_LOOP ( 'NONE', ( #224 ) ) ;
#381 = FACE_OUTER_BOUND ( 'NONE', #193, .T. ) ;
#382 = DIRECTION ( 'NONE',  ( 0.000000000000000000, 1.000000000000000000, 0.000000000000000000 ) ) ;
#383 = EDGE_CURVE ( 'NONE', #218, #218, #88, .T. ) ;
#384 = ORIENTED_EDGE ( 'NONE', *, *, #233, .F. ) ;
#385 = FACE_BOUND ( 'NONE', #377, .T. ) ;
ENDSEC;
END-ISO-10303-21;
