ISO-10303-21;
HEADER;
FILE_DESCRIPTION (( 'STEP AP214' ),
    '1' );
FILE_NAME ('M08-8940.STEP',
    '2025-07-17T17:17:27',
    ( '' ),
    ( '' ),
    'SwSTEP 2.0',
    'SolidWorks 2023',
    '' );
FILE_SCHEMA (( 'AUTOMOTIVE_DESIGN' ));
ENDSEC;

DATA;
#1 = CARTESIAN_POINT ( 'NONE',  ( -0.01492500000000001638, 0.000000000000000000, 0.005575000000000000094 ) ) ;
#2 = CIRCLE ( 'NONE', #94, 0.008675609816565253707 ) ;
#3 = DIRECTION ( 'NONE',  ( 0.000000000000000000, 0.000000000000000000, 1.000000000000000000 ) ) ;
#4 = ADVANCED_FACE ( 'NONE', ( #176, #282 ), #39, .F. ) ;
#5 = CARTESIAN_POINT ( 'NONE',  ( -0.01492500000000001638, 0.000000000000000000, 0.000000000000000000 ) ) ;
#6 = AXIS2_PLACEMENT_3D ( 'NONE', #343, #289, #287 ) ;
#7 = FACE_OUTER_BOUND ( 'NONE', #271, .T. ) ;
#8 = FACE_OUTER_BOUND ( 'NONE', #290, .T. ) ;
#9 = PRODUCT_DEFINITION_CONTEXT ( 'detailed design', #274, 'design' ) ;
#10 = PLANE ( 'NONE',  #270 ) ;
#11 = DIRECTION ( 'NONE',  ( 1.000000000000000000, 0.000000000000000000, 0.000000000000000000 ) ) ;
#12 = FACE_OUTER_BOUND ( 'NONE', #20, .T. ) ;
#13 = EDGE_LOOP ( 'NONE', ( #249 ) ) ;
#14 =( GEOMETRIC_REPRESENTATION_CONTEXT ( 3 ) GLOBAL_UNCERTAINTY_ASSIGNED_CONTEXT ( ( #199 ) ) GLOBAL_UNIT_ASSIGNED_CONTEXT ( ( #222, #220, #187 ) ) REPRESENTATION_CONTEXT ( 'NONE', 'WORKASPACE' ) );
#15 = DIRECTION ( 'NONE',  ( 0.000000000000000000, 0.000000000000000000, 1.000000000000000000 ) ) ;
#16 = DIRECTION ( 'NONE',  ( -1.000000000000000000, 0.000000000000000000, -0.000000000000000000 ) ) ;
#17 = MANIFOLD_SOLID_BREP ( 'Combine1', #297 ) ;
#18 = CIRCLE ( 'NONE', #207, 0.005925000000000000579 ) ;
#19 = FACE_OUTER_BOUND ( 'NONE', #13, .T. ) ;
#20 = EDGE_LOOP ( 'NONE', ( #311 ) ) ;
#21 = EDGE_LOOP ( 'NONE', ( #267 ) ) ;
#22 = DIRECTION ( 'NONE',  ( 0.000000000000000000, 0.05879894245170531886, 0.9982698454659245657 ) ) ;
#23 = EDGE_LOOP ( 'NONE', ( #288 ) ) ;
#24 = DIRECTION ( 'NONE',  ( 0.000000000000000000, 0.000000000000000000, -1.000000000000000000 ) ) ;
#25 = TOROIDAL_SURFACE ( 'NONE', #142, 8.578643762690618452E-05, 0.001000000000000000021 ) ;
#26 = ORIENTED_EDGE ( 'NONE', *, *, #331, .F. ) ;
#27 = VERTEX_POINT ( 'NONE', #134 ) ;
#28 =( CONVERSION_BASED_UNIT ( 'INCH', #273 ) LENGTH_UNIT ( ) NAMED_UNIT ( #123 ) );
#29 = PRODUCT_CONTEXT ( 'NONE', #135, 'mechanical' ) ;
#30 = AXIS2_PLACEMENT_3D ( 'NONE', #281, #177, #244 ) ;
#31 = EDGE_CURVE ( 'NONE', #322, #322, #180, .T. ) ;
#32 = CARTESIAN_POINT ( 'NONE',  ( 0.01052338533183301908, 0.000000000000000000, -0.007799999999999997040 ) ) ;
#33 = AXIS2_PLACEMENT_3D ( 'NONE', #139, #256, #202 ) ;
#34 = ADVANCED_FACE ( 'NONE', ( #56, #52 ), #25, .T. ) ;
#35 = FACE_OUTER_BOUND ( 'NONE', #77, .T. ) ;
#36 = TOROIDAL_SURFACE ( 'NONE', #334, 0.01175000000000000176, 0.003549999999999997602 ) ;
#37 = CARTESIAN_POINT ( 'NONE',  ( 0.2039999999999999869, -2.329753847576343942E-34, 4.579669976578774797E-19 ) ) ;
#38 = DIRECTION ( 'NONE',  ( 0.000000000000000000, 0.000000000000000000, -1.000000000000000000 ) ) ;
#39 = PLANE ( 'NONE',  #320 ) ;
#40 = CARTESIAN_POINT ( 'NONE',  ( 0.2039999999999999869, -2.329753847576343942E-34, 4.579669976578774797E-19 ) ) ;
#41 = ORIENTED_EDGE ( 'NONE', *, *, #317, .T. ) ;
#42 = DIRECTION ( 'NONE',  ( -1.000000000000000000, -0.000000000000000000, -0.000000000000000000 ) ) ;
#43 = CIRCLE ( 'NONE', #79, 0.0007928932188134527352 ) ;
#44 = CARTESIAN_POINT ( 'NONE',  ( 0.2039999999999999869, -2.329753847576343942E-34, 4.579669976578774797E-19 ) ) ;
#45 = ORIENTED_EDGE ( 'NONE', *, *, #294, .F. ) ;
#46 = DIRECTION ( 'NONE',  ( -1.000000000000000000, -0.000000000000000000, -0.000000000000000000 ) ) ;
#47 = ORIENTED_EDGE ( 'NONE', *, *, #317, .F. ) ;
#48 = AXIS2_PLACEMENT_3D ( 'NONE', #327, #112, #138 ) ;
#49 = EDGE_LOOP ( 'NONE', ( #208 ) ) ;
#50 = AXIS2_PLACEMENT_3D ( 'NONE', #307, #175, #38 ) ;
#51 = CARTESIAN_POINT ( 'NONE',  ( 0.1455876933041053145, 0.000000000000000000, 0.008675609816565253707 ) ) ;
#52 = FACE_OUTER_BOUND ( 'NONE', #147, .T. ) ;
#53 = VERTEX_POINT ( 'NONE', #328 ) ;
#54 =( LENGTH_UNIT ( ) NAMED_UNIT ( * ) SI_UNIT ( $, .METRE. ) );
#55 = CARTESIAN_POINT ( 'NONE',  ( 0.000000000000000000, 0.000000000000000000, -0.007799999999999997040 ) ) ;
#56 = FACE_OUTER_BOUND ( 'NONE', #106, .T. ) ;
#57 = VERTEX_POINT ( 'NONE', #191 ) ;
#58 = ADVANCED_FACE ( 'NONE', ( #250 ), #62, .T. ) ;
#59 = FACE_OUTER_BOUND ( 'NONE', #308, .T. ) ;
#60 = CYLINDRICAL_SURFACE ( 'NONE', #133, 0.005575000000000000094 ) ;
#61 = AXIS2_PLACEMENT_3D ( 'NONE', #242, #181, #118 ) ;
#62 = PLANE ( 'NONE',  #224 ) ;
#63 = CARTESIAN_POINT ( 'NONE',  ( -0.02000000000000000042, 0.000000000000000000, 0.000000000000000000 ) ) ;
#64 = ADVANCED_FACE ( 'NONE', ( #277, #225 ), #87, .T. ) ;
#65 = AXIS2_PLACEMENT_3D ( 'NONE', #280, #172, #201 ) ;
#66 = DIRECTION ( 'NONE',  ( -1.000000000000000000, -0.000000000000000000, -0.000000000000000000 ) ) ;
#67 = EDGE_LOOP ( 'NONE', ( #47 ) ) ;
#68 = FACE_OUTER_BOUND ( 'NONE', #49, .T. ) ;
#69 = ORIENTED_EDGE ( 'NONE', *, *, #93, .F. ) ;
#70 = ADVANCED_FACE ( 'NONE', ( #35 ), #10, .F. ) ;
#71 = FACE_OUTER_BOUND ( 'NONE', #117, .T. ) ;
#72 = ORIENTED_EDGE ( 'NONE', *, *, #291, .F. ) ;
#73 = CYLINDRICAL_SURFACE ( 'NONE', #61, 0.007799999999999997040 ) ;
#74 = ORIENTED_EDGE ( 'NONE', *, *, #349, .F. ) ;
#75 = EDGE_LOOP ( 'NONE', ( #69 ) ) ;
#76 = CARTESIAN_POINT ( 'NONE',  ( 0.1473626933041053411, 0.000000000000000000, 0.000000000000000000 ) ) ;
#77 = EDGE_LOOP ( 'NONE', ( #284 ) ) ;
#78 = VERTEX_POINT ( 'NONE', #55 ) ;
#79 = AXIS2_PLACEMENT_3D ( 'NONE', #266, #314, #336 ) ;
#80 = CARTESIAN_POINT ( 'NONE',  ( -0.02000000000000000042, 0.000000000000000000, -8.578643762690618452E-05 ) ) ;
#81 = EDGE_CURVE ( 'NONE', #195, #195, #110, .T. ) ;
#82 = DIRECTION ( 'NONE',  ( 1.000000000000000000, 0.000000000000000000, 0.000000000000000000 ) ) ;
#83 = CARTESIAN_POINT ( 'NONE',  ( 0.1396602540378443502, 0.000000000000000000, 0.000000000000000000 ) ) ;
#84 = FACE_OUTER_BOUND ( 'NONE', #210, .T. ) ;
#85 = UNCERTAINTY_MEASURE_WITH_UNIT (LENGTH_MEASURE( 1.000000000000000082E-05 ), #28, 'distance_accuracy_value', 'NONE');
#86 = DIRECTION ( 'NONE',  ( -1.000000000000000000, -0.000000000000000000, -0.000000000000000000 ) ) ;
#87 = PLANE ( 'NONE',  #65 ) ;
#88 = CIRCLE ( 'NONE', #323, 0.008199999999999998956 ) ;
#89 = DIRECTION ( 'NONE',  ( 0.000000000000000000, 0.000000000000000000, -1.000000000000000000 ) ) ;
#90 = CARTESIAN_POINT ( 'NONE',  ( 0.1428852540378443836, 0.000000000000000000, 0.000000000000000000 ) ) ;
#91 = CARTESIAN_POINT ( 'NONE',  ( 0.1396602540378443502, 0.000000000000000000, 0.000000000000000000 ) ) ;
#92 = SURFACE_SIDE_STYLE ('',( #241 ) ) ;
#93 = EDGE_CURVE ( 'NONE', #301, #301, #204, .T. ) ;
#94 = AXIS2_PLACEMENT_3D ( 'NONE', #127, #268, #247 ) ;
#95 = AXIS2_PLACEMENT_3D ( 'NONE', #90, #42, #213 ) ;
#96 = CARTESIAN_POINT ( 'NONE',  ( 0.1710000000000000131, 0.000000000000000000, 0.000000000000000000 ) ) ;
#97 = EDGE_LOOP ( 'NONE', ( #185 ) ) ;
#98 = CARTESIAN_POINT ( 'NONE',  ( 0.1710000000000000131, -7.972176638217370962E-35, 2.014075360149053385E-33 ) ) ;
#99 = ORIENTED_EDGE ( 'NONE', *, *, #197, .T. ) ;
#100 = DIRECTION ( 'NONE',  ( 1.000000000000000000, -0.000000000000000000, -0.000000000000000000 ) ) ;
#101 = SURFACE_STYLE_USAGE ( .BOTH. , #92 ) ;
#102 = ADVANCED_FACE ( 'NONE', ( #330, #198 ), #136, .T. ) ;
#103 =( NAMED_UNIT ( * ) PLANE_ANGLE_UNIT ( ) SI_UNIT ( $, .RADIAN. ) );
#104 = AXIS2_PLACEMENT_3D ( 'NONE', #313, #159, #321 ) ;
#105 = ADVANCED_FACE ( 'NONE', ( #228, #329 ), #188, .T. ) ;
#106 = EDGE_LOOP ( 'NONE', ( #119 ) ) ;
#107 = AXIS2_PLACEMENT_3D ( 'NONE', #183, #285, #258 ) ;
#108 = VERTEX_POINT ( 'NONE', #165 ) ;
#109 = CARTESIAN_POINT ( 'NONE',  ( 0.01700000000000000122, 0.000000000000000000, -0.01110000000000000223 ) ) ;
#110 = CIRCLE ( 'NONE', #237, 0.005575000000000000094 ) ;
#111 = TOROIDAL_SURFACE ( 'NONE', #30, 5.000000000000038864E-05, 0.005875000000000000881 ) ;
#112 = DIRECTION ( 'NONE',  ( -1.000000000000000000, 4.644049041680627703E-33, -1.387778780781440745E-17 ) ) ;
#113 = DIRECTION ( 'NONE',  ( -1.000000000000000000, -0.000000000000000000, -0.000000000000000000 ) ) ;
#114 = DIRECTION ( 'NONE',  ( 0.000000000000000000, 0.000000000000000000, 1.000000000000000000 ) ) ;
#115 = DIRECTION ( 'NONE',  ( -1.000000000000000000, -0.000000000000000000, -0.000000000000000000 ) ) ;
#116 = ADVANCED_FACE ( 'NONE', ( #8, #278 ), #337, .T. ) ;
#117 = EDGE_LOOP ( 'NONE', ( #26 ) ) ;
#118 = DIRECTION ( 'NONE',  ( 0.000000000000000000, 0.000000000000000000, -1.000000000000000000 ) ) ;
#119 = ORIENTED_EDGE ( 'NONE', *, *, #221, .F. ) ;
#120 = FACE_OUTER_BOUND ( 'NONE', #67, .T. ) ;
#121 = ORIENTED_EDGE ( 'NONE', *, *, #246, .T. ) ;
#122 = EDGE_LOOP ( 'NONE', ( #186 ) ) ;
#123 = DIMENSIONAL_EXPONENTS ( 1.000000000000000000, 0.000000000000000000, 0.000000000000000000, 0.000000000000000000, 0.000000000000000000, 0.000000000000000000, 0.000000000000000000 ) ;
#124 = ORIENTED_EDGE ( 'NONE', *, *, #294, .T. ) ;
#125 = ADVANCED_FACE ( 'NONE', ( #7, #300 ), #306, .T. ) ;
#126 = ORIENTED_EDGE ( 'NONE', *, *, #81, .F. ) ;
#127 = CARTESIAN_POINT ( 'NONE',  ( 0.1455876933041053145, 0.000000000000000000, 0.000000000000000000 ) ) ;
#128 = EDGE_LOOP ( 'NONE', ( #41 ) ) ;
#129 = VERTEX_POINT ( 'NONE', #295 ) ;
#130 = ADVANCED_FACE ( 'NONE', ( #230, #84 ), #60, .T. ) ;
#131 = COLOUR_RGB ( '',0.7921568627450980005, 0.8196078431372548767, 0.9333333333333333481 ) ;
#132 = CARTESIAN_POINT ( 'NONE',  ( 0.1396602540378443502, 0.000000000000000000, 0.01110000000000000223 ) ) ;
#133 = AXIS2_PLACEMENT_3D ( 'NONE', #63, #302, #173 ) ;
#134 = CARTESIAN_POINT ( 'NONE',  ( 0.2039999999999999869, 2.939947122585328619E-06, 4.991349227329775596E-05 ) ) ;
#135 = APPLICATION_CONTEXT ( 'automotive_design' ) ;
#136 = CONICAL_SURFACE ( 'NONE', #150, 0.01110000000000000223, 0.4712388980384704107 ) ;
#137 = CIRCLE ( 'NONE', #240, 0.005575000000000000094 ) ;
#138 = DIRECTION ( 'NONE',  ( 0.000000000000000000, 0.05879894245170531192, 0.9982698454659246767 ) ) ;
#139 = CARTESIAN_POINT ( 'NONE',  ( 0.1455876933041053145, 0.000000000000000000, 0.000000000000000000 ) ) ;
#140 = ADVANCED_FACE ( 'NONE', ( #59, #120 ), #73, .T. ) ;
#141 = CARTESIAN_POINT ( 'NONE',  ( 0.01700000000000000122, 0.000000000000000000, 0.000000000000000000 ) ) ;
#142 = AXIS2_PLACEMENT_3D ( 'NONE', #189, #231, #196 ) ;
#143 = DIRECTION ( 'NONE',  ( -1.000000000000000000, -0.000000000000000000, -0.000000000000000000 ) ) ;
#144 = CIRCLE ( 'NONE', #333, 0.007799999999999997040 ) ;
#145 = ADVANCED_FACE ( 'NONE', ( #312, #341 ), #111, .T. ) ;
#146 = FACE_OUTER_BOUND ( 'NONE', #318, .T. ) ;
#147 = EDGE_LOOP ( 'NONE', ( #292 ) ) ;
#148 = DIRECTION ( 'NONE',  ( -1.000000000000000000, 4.644049041680627703E-33, -1.387778780781440745E-17 ) ) ;
#149 = ORIENTED_EDGE ( 'NONE', *, *, #193, .T. ) ;
#150 = AXIS2_PLACEMENT_3D ( 'NONE', #141, #168, #89 ) ;
#151 = CARTESIAN_POINT ( 'NONE',  ( 0.1473626933041053133, 0.000000000000000000, 0.000000000000000000 ) ) ;
#152 = EDGE_LOOP ( 'NONE', ( #192 ) ) ;
#153 = AXIS2_PLACEMENT_3D ( 'NONE', #76, #115, #203 ) ;
#154 = DIRECTION ( 'NONE',  ( -1.000000000000000000, 4.644049041680627703E-33, -1.387778780781440745E-17 ) ) ;
#155 = EDGE_LOOP ( 'NONE', ( #286 ) ) ;
#156 = ADVANCED_FACE ( 'NONE', ( #71, #12 ), #36, .F. ) ;
#157 = CARTESIAN_POINT ( 'NONE',  ( 0.000000000000000000, 0.000000000000000000, 0.000000000000000000 ) ) ;
#158 = ORIENTED_EDGE ( 'NONE', *, *, #193, .F. ) ;
#159 = DIRECTION ( 'NONE',  ( 1.000000000000000000, -0.000000000000000000, -0.000000000000000000 ) ) ;
#160 = VERTEX_POINT ( 'NONE', #319 ) ;
#161 = AXIS2_PLACEMENT_3D ( 'NONE', #44, #154, #22 ) ;
#162 = LENGTH_MEASURE_WITH_UNIT ( LENGTH_MEASURE( 0.02539999999999999897 ), #54 );
#163 = VERTEX_POINT ( 'NONE', #32 ) ;
#164 = PRODUCT_DEFINITION_SHAPE ( 'NONE', 'NONE',  #233 ) ;
#165 = CARTESIAN_POINT ( 'NONE',  ( -0.01970710678118654802, 0.000000000000000000, 0.0007928932188134527352 ) ) ;
#166 = ADVANCED_BREP_SHAPE_REPRESENTATION ( 'M08-8940', ( #17, #227 ), #253 ) ;
#167 = ADVANCED_FACE ( 'NONE', ( #236, #209 ), #178, .T. ) ;
#168 = DIRECTION ( 'NONE',  ( 1.000000000000000000, -0.000000000000000000, -0.000000000000000000 ) ) ;
#169 = EDGE_CURVE ( 'NONE', #350, #350, #309, .T. ) ;
#170 = CIRCLE ( 'NONE', #95, 0.01023586385440961033 ) ;
#171 = DIRECTION ( 'NONE',  ( 0.000000000000000000, 0.000000000000000000, -1.000000000000000000 ) ) ;
#172 = DIRECTION ( 'NONE',  ( -1.000000000000000000, 0.000000000000000000, 0.000000000000000000 ) ) ;
#173 = DIRECTION ( 'NONE',  ( 0.000000000000000000, 0.000000000000000000, 1.000000000000000000 ) ) ;
#174 = PRESENTATION_LAYER_ASSIGNMENT (  '', '', ( #325 ) ) ;
#175 = DIRECTION ( 'NONE',  ( 1.000000000000000000, -0.000000000000000000, -0.000000000000000000 ) ) ;
#176 = FACE_BOUND ( 'NONE', #248, .T. ) ;
#177 = DIRECTION ( 'NONE',  ( -1.000000000000000000, 4.644049041680627703E-33, -1.387778780781440745E-17 ) ) ;
#178 = CYLINDRICAL_SURFACE ( 'NONE', #293, 0.01110000000000000223 ) ;
#179 = EDGE_LOOP ( 'NONE', ( #124 ) ) ;
#180 = CIRCLE ( 'NONE', #104, 0.01110000000000000223 ) ;
#181 = DIRECTION ( 'NONE',  ( 1.000000000000000000, -0.000000000000000000, -0.000000000000000000 ) ) ;
#182 = PRODUCT_RELATED_PRODUCT_CATEGORY ( 'part', '', ( #184 ) ) ;
#183 = CARTESIAN_POINT ( 'NONE',  ( -0.02000000000000000042, 0.000000000000000000, 0.000000000000000000 ) ) ;
#184 = PRODUCT ( 'M08-8940', 'M08-8940', '', ( #29 ) ) ;
#185 = ORIENTED_EDGE ( 'NONE', *, *, #221, .T. ) ;
#186 = ORIENTED_EDGE ( 'NONE', *, *, #31, .T. ) ;
#187 =( NAMED_UNIT ( * ) SI_UNIT ( $, .STERADIAN. ) SOLID_ANGLE_UNIT ( ) );
#188 = CONICAL_SURFACE ( 'NONE', #33, 0.008675609816565253707, 0.5235987755982989267 ) ;
#189 = CARTESIAN_POINT ( 'NONE',  ( -0.01900000000000000300, 0.000000000000000000, 0.000000000000000000 ) ) ;
#190 = AXIS2_PLACEMENT_3D ( 'NONE', #303, #113, #114 ) ;
#191 = CARTESIAN_POINT ( 'NONE',  ( 0.1428852540378443836, 0.000000000000000000, 0.01023586385440961033 ) ) ;
#192 = ORIENTED_EDGE ( 'NONE', *, *, #246, .F. ) ;
#193 = EDGE_CURVE ( 'NONE', #216, #216, #276, .T. ) ;
#194 = APPLICATION_PROTOCOL_DEFINITION ( 'draft international standard', 'automotive_design', 1998, #274 ) ;
#195 = VERTEX_POINT ( 'NONE', #1 ) ;
#196 = DIRECTION ( 'NONE',  ( 0.000000000000000000, 0.000000000000000000, -1.000000000000000000 ) ) ;
#197 = EDGE_CURVE ( 'NONE', #160, #160, #137, .T. ) ;
#198 = FACE_OUTER_BOUND ( 'NONE', #265, .T. ) ;
#199 = UNCERTAINTY_MEASURE_WITH_UNIT (LENGTH_MEASURE( 1.000000000000000082E-05 ), #222, 'distance_accuracy_value', 'NONE');
#200 = CIRCLE ( 'NONE', #50, 0.007799999999999997040 ) ;
#201 = DIRECTION ( 'NONE',  ( 0.000000000000000000, 0.000000000000000000, 1.000000000000000000 ) ) ;
#202 = DIRECTION ( 'NONE',  ( 0.000000000000000000, 0.000000000000000000, 1.000000000000000000 ) ) ;
#203 = DIRECTION ( 'NONE',  ( 0.000000000000000000, 0.000000000000000000, 1.000000000000000000 ) ) ;
#204 = CIRCLE ( 'NONE', #48, 0.005925000000000002313 ) ;
#205 = EDGE_LOOP ( 'NONE', ( #212 ) ) ;
#206 = DIRECTION ( 'NONE',  ( 0.000000000000000000, 0.000000000000000000, 1.000000000000000000 ) ) ;
#207 = AXIS2_PLACEMENT_3D ( 'NONE', #98, #11, #211 ) ;
#208 = ORIENTED_EDGE ( 'NONE', *, *, #291, .T. ) ;
#209 = FACE_OUTER_BOUND ( 'NONE', #342, .T. ) ;
#210 = EDGE_LOOP ( 'NONE', ( #126 ) ) ;
#211 = DIRECTION ( 'NONE',  ( 0.000000000000000000, 0.000000000000000000, 1.000000000000000000 ) ) ;
#212 = ORIENTED_EDGE ( 'NONE', *, *, #229, .T. ) ;
#213 = DIRECTION ( 'NONE',  ( 0.000000000000000000, 0.000000000000000000, 1.000000000000000000 ) ) ;
#214 = PRESENTATION_STYLE_ASSIGNMENT (( #101 ) ) ;
#215 = PRODUCT_DEFINITION_FORMATION_WITH_SPECIFIED_SOURCE ( 'ANY', '', #184, .NOT_KNOWN. ) ;
#216 = VERTEX_POINT ( 'NONE', #132 ) ;
#217 = AXIS2_PLACEMENT_3D ( 'NONE', #40, #148, #261 ) ;
#218 = CIRCLE ( 'NONE', #161, 5.000000000000106627E-05 ) ;
#219 = EDGE_LOOP ( 'NONE', ( #45 ) ) ;
#220 =( NAMED_UNIT ( * ) PLANE_ANGLE_UNIT ( ) SI_UNIT ( $, .RADIAN. ) );
#221 = EDGE_CURVE ( 'NONE', #108, #108, #43, .T. ) ;
#222 =( CONVERSION_BASED_UNIT ( 'INCH', #162 ) LENGTH_UNIT ( ) NAMED_UNIT ( #235 ) );
#223 = VERTEX_POINT ( 'NONE', #51 ) ;
#224 = AXIS2_PLACEMENT_3D ( 'NONE', #37, #275, #332 ) ;
#225 = FACE_OUTER_BOUND ( 'NONE', #345, .T. ) ;
#226 = VERTEX_POINT ( 'NONE', #272 ) ;
#227 = AXIS2_PLACEMENT_3D ( 'NONE', #255, #3, #82 ) ;
#228 = FACE_OUTER_BOUND ( 'NONE', #152, .T. ) ;
#229 = EDGE_CURVE ( 'NONE', #226, #226, #88, .T. ) ;
#230 = FACE_OUTER_BOUND ( 'NONE', #155, .T. ) ;
#231 = DIRECTION ( 'NONE',  ( 1.000000000000000000, 0.000000000000000000, 0.000000000000000000 ) ) ;
#232 = DIRECTION ( 'NONE',  ( 0.000000000000000000, 0.000000000000000000, 1.000000000000000000 ) ) ;
#233 = PRODUCT_DEFINITION ( 'UNKNOWN', '', #215, #9 ) ;
#234 = CARTESIAN_POINT ( 'NONE',  ( 0.000000000000000000, 0.000000000000000000, 0.000000000000000000 ) ) ;
#235 = DIMENSIONAL_EXPONENTS ( 1.000000000000000000, 0.000000000000000000, 0.000000000000000000, 0.000000000000000000, 0.000000000000000000, 0.000000000000000000, 0.000000000000000000 ) ;
#236 = FACE_OUTER_BOUND ( 'NONE', #122, .T. ) ;
#237 = AXIS2_PLACEMENT_3D ( 'NONE', #5, #143, #232 ) ;
#238 = ORIENTED_EDGE ( 'NONE', *, *, #31, .F. ) ;
#239 = DIRECTION ( 'NONE',  ( 0.000000000000000000, 0.000000000000000000, 1.000000000000000000 ) ) ;
#240 = AXIS2_PLACEMENT_3D ( 'NONE', #234, #100, #239 ) ;
#241 = SURFACE_STYLE_FILL_AREA ( #347 ) ;
#242 = CARTESIAN_POINT ( 'NONE',  ( 0.03040739083529200512, 0.000000000000000000, 0.000000000000000000 ) ) ;
#243 = EDGE_LOOP ( 'NONE', ( #99 ) ) ;
#244 = DIRECTION ( 'NONE',  ( -1.385377709031578049E-17, 0.05879894245170531192, 0.9982698454659246767 ) ) ;
#245 = CARTESIAN_POINT ( 'NONE',  ( 0.1710000000000000131, 0.008199999999999998956, 0.000000000000000000 ) ) ;
#246 = EDGE_CURVE ( 'NONE', #57, #57, #170, .T. ) ;
#247 = DIRECTION ( 'NONE',  ( 0.000000000000000000, 0.000000000000000000, 1.000000000000000000 ) ) ;
#248 = EDGE_LOOP ( 'NONE', ( #72 ) ) ;
#249 = ORIENTED_EDGE ( 'NONE', *, *, #81, .T. ) ;
#250 = FACE_OUTER_BOUND ( 'NONE', #219, .T. ) ;
#251 =( LENGTH_UNIT ( ) NAMED_UNIT ( * ) SI_UNIT ( $, .METRE. ) );
#252 = CARTESIAN_POINT ( 'NONE',  ( 0.1981250000000000233, 0.0003483837340263540912, 0.005914748834385605801 ) ) ;
#253 =( GEOMETRIC_REPRESENTATION_CONTEXT ( 3 ) GLOBAL_UNCERTAINTY_ASSIGNED_CONTEXT ( ( #85 ) ) GLOBAL_UNIT_ASSIGNED_CONTEXT ( ( #28, #103, #324 ) ) REPRESENTATION_CONTEXT ( 'NONE', 'WORKASPACE' ) );
#254 = CONICAL_SURFACE ( 'NONE', #6, 0.005575000000000000094, 0.7853981633974499443 ) ;
#255 = CARTESIAN_POINT ( 'NONE',  ( 0.000000000000000000, 0.000000000000000000, 0.000000000000000000 ) ) ;
#256 = DIRECTION ( 'NONE',  ( -1.000000000000000000, -0.000000000000000000, -0.000000000000000000 ) ) ;
#257 = CARTESIAN_POINT ( 'NONE',  ( -0.02000000000000000042, 0.0005000000000000000104, 0.000000000000000000 ) ) ;
#258 = DIRECTION ( 'NONE',  ( 0.000000000000000000, 0.000000000000000000, -1.000000000000000000 ) ) ;
#259 = CYLINDRICAL_SURFACE ( 'NONE', #217, 0.005925000000000001446 ) ;
#260 = ORIENTED_EDGE ( 'NONE', *, *, #299, .F. ) ;
#261 = DIRECTION ( 'NONE',  ( 0.000000000000000000, 0.05879894245170531886, 0.9982698454659246767 ) ) ;
#262 = MECHANICAL_DESIGN_GEOMETRIC_PRESENTATION_REPRESENTATION (  '', ( #325 ), #14 ) ;
#263 = ORIENTED_EDGE ( 'NONE', *, *, #349, .T. ) ;
#264 = FACE_BOUND ( 'NONE', #97, .T. ) ;
#265 = EDGE_LOOP ( 'NONE', ( #238 ) ) ;
#266 = CARTESIAN_POINT ( 'NONE',  ( -0.01970710678118654802, 0.000000000000000000, 0.000000000000000000 ) ) ;
#267 = ORIENTED_EDGE ( 'NONE', *, *, #331, .T. ) ;
#268 = DIRECTION ( 'NONE',  ( -1.000000000000000000, -0.000000000000000000, -0.000000000000000000 ) ) ;
#269 = ORIENTED_EDGE ( 'NONE', *, *, #93, .T. ) ;
#270 = AXIS2_PLACEMENT_3D ( 'NONE', #257, #305, #171 ) ;
#271 = EDGE_LOOP ( 'NONE', ( #260 ) ) ;
#272 = CARTESIAN_POINT ( 'NONE',  ( 0.1710000000000000131, 0.000000000000000000, 0.008199999999999998956 ) ) ;
#273 = LENGTH_MEASURE_WITH_UNIT ( LENGTH_MEASURE( 0.02539999999999999897 ), #251 );
#274 = APPLICATION_CONTEXT ( 'automotive_design' ) ;
#275 = DIRECTION ( 'NONE',  ( 1.000000000000000000, -4.718528363748727840E-33, 1.387778780781440591E-17 ) ) ;
#276 = CIRCLE ( 'NONE', #340, 0.01110000000000000223 ) ;
#277 = FACE_BOUND ( 'NONE', #243, .T. ) ;
#278 = FACE_OUTER_BOUND ( 'NONE', #344, .T. ) ;
#279 = ADVANCED_FACE ( 'NONE', ( #264, #19 ), #254, .T. ) ;
#280 = CARTESIAN_POINT ( 'NONE',  ( 0.000000000000000000, 0.006299999999999997442, 0.000000000000000000 ) ) ;
#281 = CARTESIAN_POINT ( 'NONE',  ( 0.1981250000000000233, -2.056915966377607197E-34, 3.764349942869678109E-19 ) ) ;
#282 = FACE_OUTER_BOUND ( 'NONE', #23, .T. ) ;
#283 = DIRECTION ( 'NONE',  ( -1.000000000000000000, -0.000000000000000000, -0.000000000000000000 ) ) ;
#284 = ORIENTED_EDGE ( 'NONE', *, *, #169, .T. ) ;
#285 = DIRECTION ( 'NONE',  ( -1.000000000000000000, -0.000000000000000000, -0.000000000000000000 ) ) ;
#286 = ORIENTED_EDGE ( 'NONE', *, *, #197, .F. ) ;
#287 = DIRECTION ( 'NONE',  ( 0.000000000000000000, 0.000000000000000000, -1.000000000000000000 ) ) ;
#288 = ORIENTED_EDGE ( 'NONE', *, *, #229, .F. ) ;
#289 = DIRECTION ( 'NONE',  ( 1.000000000000000000, 0.000000000000000000, 0.000000000000000000 ) ) ;
#290 = EDGE_LOOP ( 'NONE', ( #158 ) ) ;
#291 = EDGE_CURVE ( 'NONE', #53, #53, #18, .T. ) ;
#292 = ORIENTED_EDGE ( 'NONE', *, *, #169, .F. ) ;
#293 = AXIS2_PLACEMENT_3D ( 'NONE', #310, #66, #15 ) ;
#294 = EDGE_CURVE ( 'NONE', #27, #27, #218, .T. ) ;
#295 = CARTESIAN_POINT ( 'NONE',  ( 0.1473626933041053411, 0.000000000000000000, 0.008200000000000004161 ) ) ;
#296 = APPLICATION_PROTOCOL_DEFINITION ( 'draft international standard', 'automotive_design', 1998, #135 ) ;
#297 = CLOSED_SHELL ( 'NONE', ( #4, #167, #116, #105, #156, #125, #102, #140, #64, #70, #279, #130, #34, #326, #145, #58 ) ) ;
#298 = SHAPE_DEFINITION_REPRESENTATION ( #164, #166 ) ;
#299 = EDGE_CURVE ( 'NONE', #129, #129, #304, .T. ) ;
#300 = FACE_OUTER_BOUND ( 'NONE', #205, .T. ) ;
#301 = VERTEX_POINT ( 'NONE', #252 ) ;
#302 = DIRECTION ( 'NONE',  ( -1.000000000000000000, -0.000000000000000000, -0.000000000000000000 ) ) ;
#303 = CARTESIAN_POINT ( 'NONE',  ( 0.000000000000000000, 0.000000000000000000, 0.000000000000000000 ) ) ;
#304 = CIRCLE ( 'NONE', #153, 0.008200000000000004161 ) ;
#305 = DIRECTION ( 'NONE',  ( 1.000000000000000000, 0.000000000000000000, 0.000000000000000000 ) ) ;
#306 = CYLINDRICAL_SURFACE ( 'NONE', #190, 0.008200000000000000691 ) ;
#307 = CARTESIAN_POINT ( 'NONE',  ( 0.01052338533183301908, 0.000000000000000000, 0.000000000000000000 ) ) ;
#308 = EDGE_LOOP ( 'NONE', ( #263 ) ) ;
#309 = CIRCLE ( 'NONE', #107, 8.578643762690618452E-05 ) ;
#310 = CARTESIAN_POINT ( 'NONE',  ( 0.000000000000000000, 0.000000000000000000, 0.000000000000000000 ) ) ;
#311 = ORIENTED_EDGE ( 'NONE', *, *, #299, .T. ) ;
#312 = FACE_OUTER_BOUND ( 'NONE', #179, .T. ) ;
#313 = CARTESIAN_POINT ( 'NONE',  ( 0.01700000000000000122, 0.000000000000000000, 0.000000000000000000 ) ) ;
#314 = DIRECTION ( 'NONE',  ( 1.000000000000000000, 0.000000000000000000, 0.000000000000000000 ) ) ;
#315 = DIRECTION ( 'NONE',  ( -0.000000000000000000, 0.000000000000000000, 1.000000000000000000 ) ) ;
#316 = DIRECTION ( 'NONE',  ( 0.000000000000000000, 0.000000000000000000, 1.000000000000000000 ) ) ;
#317 = EDGE_CURVE ( 'NONE', #163, #163, #200, .T. ) ;
#318 = EDGE_LOOP ( 'NONE', ( #269 ) ) ;
#319 = CARTESIAN_POINT ( 'NONE',  ( 0.000000000000000000, 0.000000000000000000, 0.005575000000000000094 ) ) ;
#320 = AXIS2_PLACEMENT_3D ( 'NONE', #245, #16, #315 ) ;
#321 = DIRECTION ( 'NONE',  ( 0.000000000000000000, 0.000000000000000000, -1.000000000000000000 ) ) ;
#322 = VERTEX_POINT ( 'NONE', #109 ) ;
#323 = AXIS2_PLACEMENT_3D ( 'NONE', #96, #283, #316 ) ;
#324 =( NAMED_UNIT ( * ) SI_UNIT ( $, .STERADIAN. ) SOLID_ANGLE_UNIT ( ) );
#325 = STYLED_ITEM ( 'NONE', ( #214 ), #17 ) ;
#326 = ADVANCED_FACE ( 'NONE', ( #146, #68 ), #259, .T. ) ;
#327 = CARTESIAN_POINT ( 'NONE',  ( 0.1981250000000000233, -2.056915966377607197E-34, 3.764349942869678109E-19 ) ) ;
#328 = CARTESIAN_POINT ( 'NONE',  ( 0.1710000000000000131, -7.972176638217370962E-35, 0.005925000000000000579 ) ) ;
#329 = FACE_BOUND ( 'NONE', #21, .T. ) ;
#330 = FACE_BOUND ( 'NONE', #128, .T. ) ;
#331 = EDGE_CURVE ( 'NONE', #223, #223, #2, .T. ) ;
#332 = DIRECTION ( 'NONE',  ( 1.385377709031577895E-17, -0.05879894245170533273, -0.9982698454659246767 ) ) ;
#333 = AXIS2_PLACEMENT_3D ( 'NONE', #157, #348, #24 ) ;
#334 = AXIS2_PLACEMENT_3D ( 'NONE', #151, #346, #338 ) ;
#335 = DIRECTION ( 'NONE',  ( 0.000000000000000000, 0.000000000000000000, 1.000000000000000000 ) ) ;
#336 = DIRECTION ( 'NONE',  ( 0.000000000000000000, 0.000000000000000000, 1.000000000000000000 ) ) ;
#337 = TOROIDAL_SURFACE ( 'NONE', #351, 0.004650000000000002222, 0.006450000000000002606 ) ;
#338 = DIRECTION ( 'NONE',  ( 0.000000000000000000, 0.000000000000000000, 1.000000000000000000 ) ) ;
#339 = FILL_AREA_STYLE_COLOUR ( '', #131 ) ;
#340 = AXIS2_PLACEMENT_3D ( 'NONE', #91, #46, #206 ) ;
#341 = FACE_OUTER_BOUND ( 'NONE', #75, .T. ) ;
#342 = EDGE_LOOP ( 'NONE', ( #149 ) ) ;
#343 = CARTESIAN_POINT ( 'NONE',  ( -0.01492500000000001638, 0.000000000000000000, 0.000000000000000000 ) ) ;
#344 = EDGE_LOOP ( 'NONE', ( #121 ) ) ;
#345 = EDGE_LOOP ( 'NONE', ( #74 ) ) ;
#346 = DIRECTION ( 'NONE',  ( -1.000000000000000000, -0.000000000000000000, -0.000000000000000000 ) ) ;
#347 = FILL_AREA_STYLE ('',( #339 ) ) ;
#348 = DIRECTION ( 'NONE',  ( 1.000000000000000000, -0.000000000000000000, -0.000000000000000000 ) ) ;
#349 = EDGE_CURVE ( 'NONE', #78, #78, #144, .T. ) ;
#350 = VERTEX_POINT ( 'NONE', #80 ) ;
#351 = AXIS2_PLACEMENT_3D ( 'NONE', #83, #86, #335 ) ;
ENDSEC;
END-ISO-10303-21;
