ISO-10303-21;
HEADER;
FILE_DESCRIPTION (( 'STEP AP214' ),
    '1' );
FILE_NAME ('WG31.STEP',
    '2020-10-15T12:34:38',
    ( '' ),
    ( '' ),
    'SwSTEP 2.0',
    'SolidWorks 2019',
    '' );
FILE_SCHEMA (( 'AUTOMOTIVE_DESIGN' ));
ENDSEC;

DATA;
#1 = CYLINDRICAL_SURFACE ( 'NONE', #106, 0.01050000000000000239 ) ;
#2 = FACE_OUTER_BOUND ( 'NONE', #67, .T. ) ;
#3 = SURFACE_STYLE_FILL_AREA ( #137 ) ;
#4 = AXIS2_PLACEMENT_3D ( 'NONE', #43, #23, #34 ) ;
#5 = SURFACE_SIDE_STYLE ('',( #3 ) ) ;
#6 = PRESENTATION_STYLE_ASSIGNMENT (( #51 ) ) ;
#7 = EDGE_CURVE ( 'NONE', #101, #101, #117, .T. ) ;
#8 = DIRECTION ( 'NONE',  ( 0.0000000000000000000, 0.0000000000000000000, 1.000000000000000000 ) ) ;
#9 =( NAMED_UNIT ( * ) SI_UNIT ( $, .STERADIAN. ) SOLID_ANGLE_UNIT ( ) );
#10 = DIRECTION ( 'NONE',  ( 0.0000000000000000000, 0.0000000000000000000, 1.000000000000000000 ) ) ;
#11 = EDGE_LOOP ( 'NONE', ( #136 ) ) ;
#12 =( CONVERSION_BASED_UNIT ( 'INCH', #32 ) LENGTH_UNIT ( ) NAMED_UNIT ( #141 ) );
#13 = AXIS2_PLACEMENT_3D ( 'NONE', #115, #52, #91 ) ;
#14 = DIRECTION ( 'NONE',  ( -1.000000000000000000, -0.0000000000000000000, -0.0000000000000000000 ) ) ;
#15 = PRODUCT_DEFINITION ( 'UNKNOWN', '', #22, #26 ) ;
#16 =( NAMED_UNIT ( * ) SI_UNIT ( $, .STERADIAN. ) SOLID_ANGLE_UNIT ( ) );
#17 = DIRECTION ( 'NONE',  ( 1.000000000000000000, 0.0000000000000000000, 0.0000000000000000000 ) ) ;
#18 =( CONVERSION_BASED_UNIT ( 'INCH', #70 ) LENGTH_UNIT ( ) NAMED_UNIT ( #65 ) );
#19 = VERTEX_POINT ( 'NONE', #40 ) ;
#20 = DIMENSIONAL_EXPONENTS ( 1.000000000000000000, 0.0000000000000000000, 0.0000000000000000000, 0.0000000000000000000, 0.0000000000000000000, 0.0000000000000000000, 0.0000000000000000000 ) ;
#21 = COLOUR_RGB ( '',0.7921568627450980005, 0.8196078431372548767, 0.9333333333333333481 ) ;
#22 = PRODUCT_DEFINITION_FORMATION_WITH_SPECIFIED_SOURCE ( 'ANY', '', #28, .NOT_KNOWN. ) ;
#23 = DIRECTION ( 'NONE',  ( 1.000000000000000000, 0.0000000000000000000, 0.0000000000000000000 ) ) ;
#24 = ORIENTED_EDGE ( 'NONE', *, *, #119, .T. ) ;
#25 = ORIENTED_EDGE ( 'NONE', *, *, #7, .T. ) ;
#26 = PRODUCT_DEFINITION_CONTEXT ( 'detailed design', #72, 'design' ) ;
#27 = EDGE_LOOP ( 'NONE', ( #24 ) ) ;
#28 = PRODUCT ( 'WG31', 'WG31', '', ( #138 ) ) ;
#29 = DIRECTION ( 'NONE',  ( 0.0000000000000000000, 0.0000000000000000000, 1.000000000000000000 ) ) ;
#30 = AXIS2_PLACEMENT_3D ( 'NONE', #108, #77, #121 ) ;
#31 = SURFACE_SIDE_STYLE ('',( #92 ) ) ;
#32 = LENGTH_MEASURE_WITH_UNIT ( LENGTH_MEASURE( 0.02539999999999999897 ), #132 );
#33 = ADVANCED_FACE ( 'NONE', ( #103, #71 ), #105, .T. ) ;
#34 = DIRECTION ( 'NONE',  ( 0.0000000000000000000, 0.0000000000000000000, -1.000000000000000000 ) ) ;
#35 = FACE_OUTER_BOUND ( 'NONE', #131, .T. ) ;
#36 =( NAMED_UNIT ( * ) PLANE_ANGLE_UNIT ( ) SI_UNIT ( $, .RADIAN. ) );
#37 = DIRECTION ( 'NONE',  ( -1.000000000000000000, -0.0000000000000000000, -0.0000000000000000000 ) ) ;
#38 = DIRECTION ( 'NONE',  ( -1.000000000000000000, -0.0000000000000000000, -0.0000000000000000000 ) ) ;
#39 = STYLED_ITEM ( 'NONE', ( #60 ), #107 ) ;
#40 = CARTESIAN_POINT ( 'NONE',  ( 0.2999999999999999334, 0.0000000000000000000, 0.01450000000000000074 ) ) ;
#41 = FILL_AREA_STYLE_COLOUR ( '', #21 ) ;
#42 = COLOUR_RGB ( '',0.7921568627450980005, 0.8196078431372548767, 0.9333333333333333481 ) ;
#43 = CARTESIAN_POINT ( 'NONE',  ( 7.347880794884117417E-19, 0.01450000000000000074, 0.0000000000000000000 ) ) ;
#44 = FACE_OUTER_BOUND ( 'NONE', #84, .T. ) ;
#45 = ORIENTED_EDGE ( 'NONE', *, *, #119, .F. ) ;
#46 = CARTESIAN_POINT ( 'NONE',  ( 0.0000000000000000000, 0.0000000000000000000, 0.0000000000000000000 ) ) ;
#47 = STYLED_ITEM ( 'NONE', ( #6 ), #48 ) ;
#48 = ADVANCED_BREP_SHAPE_REPRESENTATION ( 'WG31', ( #107, #53 ), #54 ) ;
#49 =( LENGTH_UNIT ( ) NAMED_UNIT ( * ) SI_UNIT ( $, .METRE. ) );
#50 =( NAMED_UNIT ( * ) SI_UNIT ( $, .STERADIAN. ) SOLID_ANGLE_UNIT ( ) );
#51 = SURFACE_STYLE_USAGE ( .BOTH. , #31 ) ;
#52 = DIRECTION ( 'NONE',  ( -1.000000000000000000, -0.0000000000000000000, -0.0000000000000000000 ) ) ;
#53 = AXIS2_PLACEMENT_3D ( 'NONE', #46, #89, #17 ) ;
#54 =( GEOMETRIC_REPRESENTATION_CONTEXT ( 3 ) GLOBAL_UNCERTAINTY_ASSIGNED_CONTEXT ( ( #143 ) ) GLOBAL_UNIT_ASSIGNED_CONTEXT ( ( #12, #116, #9 ) ) REPRESENTATION_CONTEXT ( 'NONE', 'WORKASPACE' ) );
#55 = VERTEX_POINT ( 'NONE', #56 ) ;
#56 = CARTESIAN_POINT ( 'NONE',  ( 0.0000000000000000000, 0.0000000000000000000, 0.01050000000000000239 ) ) ;
#57 = EDGE_CURVE ( 'NONE', #55, #55, #139, .T. ) ;
#58 = CARTESIAN_POINT ( 'NONE',  ( 0.0000000000000000000, 0.0000000000000000000, 0.0000000000000000000 ) ) ;
#59 = AXIS2_PLACEMENT_3D ( 'NONE', #98, #38, #8 ) ;
#60 = PRESENTATION_STYLE_ASSIGNMENT (( #124 ) ) ;
#61 = FILL_AREA_STYLE ('',( #41 ) ) ;
#62 = APPLICATION_PROTOCOL_DEFINITION ( 'draft international standard', 'automotive_design', 1998, #72 ) ;
#63 = DIRECTION ( 'NONE',  ( -1.000000000000000000, -0.0000000000000000000, -0.0000000000000000000 ) ) ;
#64 = UNCERTAINTY_MEASURE_WITH_UNIT (LENGTH_MEASURE( 1.000000000000000082E-05 ), #69, 'distance_accuracy_value', 'NONE');
#65 = DIMENSIONAL_EXPONENTS ( 1.000000000000000000, 0.0000000000000000000, 0.0000000000000000000, 0.0000000000000000000, 0.0000000000000000000, 0.0000000000000000000, 0.0000000000000000000 ) ;
#66 = VERTEX_POINT ( 'NONE', #83 ) ;
#67 = EDGE_LOOP ( 'NONE', ( #25 ) ) ;
#68 = CLOSED_SHELL ( 'NONE', ( #122, #140, #104, #33 ) ) ;
#69 =( CONVERSION_BASED_UNIT ( 'INCH', #109 ) LENGTH_UNIT ( ) NAMED_UNIT ( #20 ) );
#70 = LENGTH_MEASURE_WITH_UNIT ( LENGTH_MEASURE( 0.02539999999999999897 ), #49 );
#71 = FACE_OUTER_BOUND ( 'NONE', #27, .T. ) ;
#72 = APPLICATION_CONTEXT ( 'automotive_design' ) ;
#73 = CARTESIAN_POINT ( 'NONE',  ( 0.2999999999999999334, 0.0000000000000000000, 0.0000000000000000000 ) ) ;
#74 = EDGE_LOOP ( 'NONE', ( #120 ) ) ;
#75 = PRESENTATION_LAYER_ASSIGNMENT (  '', '', ( #39 ) ) ;
#76 = EDGE_LOOP ( 'NONE', ( #102 ) ) ;
#77 = DIRECTION ( 'NONE',  ( -1.000000000000000000, 0.0000000000000000000, -0.0000000000000000000 ) ) ;
#78 = DIRECTION ( 'NONE',  ( -1.000000000000000000, -0.0000000000000000000, -0.0000000000000000000 ) ) ;
#79 = PLANE ( 'NONE',  #30 ) ;
#80 = EDGE_CURVE ( 'NONE', #66, #66, #87, .T. ) ;
#81 =( GEOMETRIC_REPRESENTATION_CONTEXT ( 3 ) GLOBAL_UNCERTAINTY_ASSIGNED_CONTEXT ( ( #114 ) ) GLOBAL_UNIT_ASSIGNED_CONTEXT ( ( #18, #36, #16 ) ) REPRESENTATION_CONTEXT ( 'NONE', 'WORKASPACE' ) );
#82 = PLANE ( 'NONE',  #4 ) ;
#83 = CARTESIAN_POINT ( 'NONE',  ( 0.2999999999999999334, 0.0000000000000000000, 0.01050000000000000239 ) ) ;
#84 = EDGE_LOOP ( 'NONE', ( #86 ) ) ;
#85 = AXIS2_PLACEMENT_3D ( 'NONE', #96, #78, #29 ) ;
#86 = ORIENTED_EDGE ( 'NONE', *, *, #80, .F. ) ;
#87 = CIRCLE ( 'NONE', #85, 0.01050000000000000239 ) ;
#88 = DIRECTION ( 'NONE',  ( 0.0000000000000000000, 0.0000000000000000000, 1.000000000000000000 ) ) ;
#89 = DIRECTION ( 'NONE',  ( 0.0000000000000000000, 0.0000000000000000000, 1.000000000000000000 ) ) ;
#90 =( LENGTH_UNIT ( ) NAMED_UNIT ( * ) SI_UNIT ( $, .METRE. ) );
#91 = DIRECTION ( 'NONE',  ( 0.0000000000000000000, 0.0000000000000000000, 1.000000000000000000 ) ) ;
#92 = SURFACE_STYLE_FILL_AREA ( #61 ) ;
#93 = FACE_OUTER_BOUND ( 'NONE', #134, .T. ) ;
#94 = MECHANICAL_DESIGN_GEOMETRIC_PRESENTATION_REPRESENTATION (  '', ( #39 ), #81 ) ;
#95 = MECHANICAL_DESIGN_GEOMETRIC_PRESENTATION_REPRESENTATION (  '', ( #47 ), #112 ) ;
#96 = CARTESIAN_POINT ( 'NONE',  ( 0.2999999999999999334, 0.0000000000000000000, 0.0000000000000000000 ) ) ;
#97 =( NAMED_UNIT ( * ) PLANE_ANGLE_UNIT ( ) SI_UNIT ( $, .RADIAN. ) );
#98 = CARTESIAN_POINT ( 'NONE',  ( -0.02134789528812627499, 0.0000000000000000000, 0.0000000000000000000 ) ) ;
#99 = AXIS2_PLACEMENT_3D ( 'NONE', #58, #37, #88 ) ;
#100 = APPLICATION_PROTOCOL_DEFINITION ( 'draft international standard', 'automotive_design', 1998, #110 ) ;
#101 = VERTEX_POINT ( 'NONE', #142 ) ;
#102 = ORIENTED_EDGE ( 'NONE', *, *, #57, .F. ) ;
#103 = FACE_OUTER_BOUND ( 'NONE', #11, .T. ) ;
#104 = ADVANCED_FACE ( 'NONE', ( #35, #126 ), #79, .F. ) ;
#105 = CYLINDRICAL_SURFACE ( 'NONE', #59, 0.01450000000000000074 ) ;
#106 = AXIS2_PLACEMENT_3D ( 'NONE', #130, #63, #10 ) ;
#107 = MANIFOLD_SOLID_BREP ( 'Revolve1', #68 ) ;
#108 = CARTESIAN_POINT ( 'NONE',  ( 0.2999999999999999889, 0.01450000000000000074, 0.0000000000000000000 ) ) ;
#109 = LENGTH_MEASURE_WITH_UNIT ( LENGTH_MEASURE( 0.02539999999999999897 ), #90 );
#110 = APPLICATION_CONTEXT ( 'automotive_design' ) ;
#111 = FACE_BOUND ( 'NONE', #76, .T. ) ;
#112 =( GEOMETRIC_REPRESENTATION_CONTEXT ( 3 ) GLOBAL_UNCERTAINTY_ASSIGNED_CONTEXT ( ( #64 ) ) GLOBAL_UNIT_ASSIGNED_CONTEXT ( ( #69, #97, #50 ) ) REPRESENTATION_CONTEXT ( 'NONE', 'WORKASPACE' ) );
#113 = ORIENTED_EDGE ( 'NONE', *, *, #57, .T. ) ;
#114 = UNCERTAINTY_MEASURE_WITH_UNIT (LENGTH_MEASURE( 1.000000000000000082E-05 ), #18, 'distance_accuracy_value', 'NONE');
#115 = CARTESIAN_POINT ( 'NONE',  ( 0.0000000000000000000, 0.0000000000000000000, 0.0000000000000000000 ) ) ;
#116 =( NAMED_UNIT ( * ) PLANE_ANGLE_UNIT ( ) SI_UNIT ( $, .RADIAN. ) );
#117 = CIRCLE ( 'NONE', #13, 0.01450000000000000074 ) ;
#118 = SHAPE_DEFINITION_REPRESENTATION ( #133, #48 ) ;
#119 = EDGE_CURVE ( 'NONE', #19, #19, #135, .T. ) ;
#120 = ORIENTED_EDGE ( 'NONE', *, *, #80, .T. ) ;
#121 = DIRECTION ( 'NONE',  ( -0.0000000000000000000, 0.0000000000000000000, 1.000000000000000000 ) ) ;
#122 = ADVANCED_FACE ( 'NONE', ( #111, #2 ), #82, .F. ) ;
#123 = FILL_AREA_STYLE_COLOUR ( '', #42 ) ;
#124 = SURFACE_STYLE_USAGE ( .BOTH. , #5 ) ;
#125 = PRESENTATION_LAYER_ASSIGNMENT (  '', '', ( #47 ) ) ;
#126 = FACE_BOUND ( 'NONE', #74, .T. ) ;
#127 = AXIS2_PLACEMENT_3D ( 'NONE', #73, #14, #128 ) ;
#128 = DIRECTION ( 'NONE',  ( 0.0000000000000000000, 0.0000000000000000000, 1.000000000000000000 ) ) ;
#129 = PRODUCT_RELATED_PRODUCT_CATEGORY ( 'part', '', ( #28 ) ) ;
#130 = CARTESIAN_POINT ( 'NONE',  ( -0.02134789528812627499, 0.0000000000000000000, 0.0000000000000000000 ) ) ;
#131 = EDGE_LOOP ( 'NONE', ( #45 ) ) ;
#132 =( LENGTH_UNIT ( ) NAMED_UNIT ( * ) SI_UNIT ( $, .METRE. ) );
#133 = PRODUCT_DEFINITION_SHAPE ( 'NONE', 'NONE',  #15 ) ;
#134 = EDGE_LOOP ( 'NONE', ( #113 ) ) ;
#135 = CIRCLE ( 'NONE', #127, 0.01450000000000000074 ) ;
#136 = ORIENTED_EDGE ( 'NONE', *, *, #7, .F. ) ;
#137 = FILL_AREA_STYLE ('',( #123 ) ) ;
#138 = PRODUCT_CONTEXT ( 'NONE', #110, 'mechanical' ) ;
#139 = CIRCLE ( 'NONE', #99, 0.01050000000000000239 ) ;
#140 = ADVANCED_FACE ( 'NONE', ( #44, #93 ), #1, .F. ) ;
#141 = DIMENSIONAL_EXPONENTS ( 1.000000000000000000, 0.0000000000000000000, 0.0000000000000000000, 0.0000000000000000000, 0.0000000000000000000, 0.0000000000000000000, 0.0000000000000000000 ) ;
#142 = CARTESIAN_POINT ( 'NONE',  ( 0.0000000000000000000, 0.0000000000000000000, 0.01450000000000000074 ) ) ;
#143 = UNCERTAINTY_MEASURE_WITH_UNIT (LENGTH_MEASURE( 1.000000000000000082E-05 ), #12, 'distance_accuracy_value', 'NONE');
ENDSEC;
END-ISO-10303-21;
