ISO-10303-21;
HEADER;
FILE_DESCRIPTION (( 'STEP AP214' ),
    '1' );
FILE_NAME ('WG39.STEP',
    '2020-10-15T12:38:29',
    ( '' ),
    ( '' ),
    'SwSTEP 2.0',
    'SolidWorks 2019',
    '' );
FILE_SCHEMA (( 'AUTOMOTIVE_DESIGN' ));
ENDSEC;

DATA;
#1 = DIRECTION ( 'NONE',  ( 0.0000000000000000000, 0.0000000000000000000, 1.000000000000000000 ) ) ;
#2 = PRODUCT ( 'WG39', 'WG39', '', ( #29 ) ) ;
#3 = CARTESIAN_POINT ( 'NONE',  ( 0.2999999999999999334, 0.0000000000000000000, 0.01250000000000000069 ) ) ;
#4 = FACE_BOUND ( 'NONE', #110, .T. ) ;
#5 = FACE_OUTER_BOUND ( 'NONE', #76, .T. ) ;
#6 = CARTESIAN_POINT ( 'NONE',  ( 0.2999999999999999889, 0.01849999999999999908, 0.0000000000000000000 ) ) ;
#7 = PRESENTATION_STYLE_ASSIGNMENT (( #91 ) ) ;
#8 = MECHANICAL_DESIGN_GEOMETRIC_PRESENTATION_REPRESENTATION (  '', ( #106 ), #15 ) ;
#9 = EDGE_LOOP ( 'NONE', ( #143 ) ) ;
#10 = FILL_AREA_STYLE ('',( #66 ) ) ;
#11 = FILL_AREA_STYLE_COLOUR ( '', #132 ) ;
#12 = DIRECTION ( 'NONE',  ( -1.000000000000000000, -0.0000000000000000000, -0.0000000000000000000 ) ) ;
#13 = FACE_OUTER_BOUND ( 'NONE', #79, .T. ) ;
#14 = DIMENSIONAL_EXPONENTS ( 1.000000000000000000, 0.0000000000000000000, 0.0000000000000000000, 0.0000000000000000000, 0.0000000000000000000, 0.0000000000000000000, 0.0000000000000000000 ) ;
#15 =( GEOMETRIC_REPRESENTATION_CONTEXT ( 3 ) GLOBAL_UNCERTAINTY_ASSIGNED_CONTEXT ( ( #140 ) ) GLOBAL_UNIT_ASSIGNED_CONTEXT ( ( #85, #31, #133 ) ) REPRESENTATION_CONTEXT ( 'NONE', 'WORKASPACE' ) );
#16 = COLOUR_RGB ( '',0.2980392156862745057, 0.2980392156862745057, 0.2980392156862745057 ) ;
#17 = ORIENTED_EDGE ( 'NONE', *, *, #57, .F. ) ;
#18 = EDGE_CURVE ( 'NONE', #137, #137, #96, .T. ) ;
#19 = ORIENTED_EDGE ( 'NONE', *, *, #81, .T. ) ;
#20 = AXIS2_PLACEMENT_3D ( 'NONE', #99, #1, #41 ) ;
#21 = SURFACE_SIDE_STYLE ('',( #123 ) ) ;
#22 = FACE_OUTER_BOUND ( 'NONE', #55, .T. ) ;
#23 = CARTESIAN_POINT ( 'NONE',  ( 0.2999999999999999334, 0.0000000000000000000, 0.01849999999999999908 ) ) ;
#24 = STYLED_ITEM ( 'NONE', ( #7 ), #32 ) ;
#25 = DIRECTION ( 'NONE',  ( 0.0000000000000000000, 0.0000000000000000000, 1.000000000000000000 ) ) ;
#26 =( NAMED_UNIT ( * ) SI_UNIT ( $, .STERADIAN. ) SOLID_ANGLE_UNIT ( ) );
#27 = PRODUCT_DEFINITION ( 'UNKNOWN', '', #107, #75 ) ;
#28 = UNCERTAINTY_MEASURE_WITH_UNIT (LENGTH_MEASURE( 1.000000000000000082E-05 ), #124, 'distance_accuracy_value', 'NONE');
#29 = PRODUCT_CONTEXT ( 'NONE', #87, 'mechanical' ) ;
#30 = AXIS2_PLACEMENT_3D ( 'NONE', #100, #52, #93 ) ;
#31 =( NAMED_UNIT ( * ) PLANE_ANGLE_UNIT ( ) SI_UNIT ( $, .RADIAN. ) );
#32 = ADVANCED_BREP_SHAPE_REPRESENTATION ( 'WG39', ( #33, #20 ), #50 ) ;
#33 = MANIFOLD_SOLID_BREP ( 'Revolve1', #101 ) ;
#34 = APPLICATION_CONTEXT ( 'automotive_design' ) ;
#35 =( LENGTH_UNIT ( ) NAMED_UNIT ( * ) SI_UNIT ( $, .METRE. ) );
#36 = CARTESIAN_POINT ( 'NONE',  ( -0.02134789528812627499, 0.0000000000000000000, 0.0000000000000000000 ) ) ;
#37 = DIRECTION ( 'NONE',  ( -1.000000000000000000, -0.0000000000000000000, -0.0000000000000000000 ) ) ;
#38 = VERTEX_POINT ( 'NONE', #84 ) ;
#39 = DIRECTION ( 'NONE',  ( 0.0000000000000000000, 0.0000000000000000000, 1.000000000000000000 ) ) ;
#40 =( LENGTH_UNIT ( ) NAMED_UNIT ( * ) SI_UNIT ( $, .METRE. ) );
#41 = DIRECTION ( 'NONE',  ( 1.000000000000000000, 0.0000000000000000000, 0.0000000000000000000 ) ) ;
#42 = APPLICATION_PROTOCOL_DEFINITION ( 'draft international standard', 'automotive_design', 1998, #34 ) ;
#43 = CIRCLE ( 'NONE', #97, 0.01250000000000000069 ) ;
#44 = LENGTH_MEASURE_WITH_UNIT ( LENGTH_MEASURE( 0.02539999999999999897 ), #88 );
#45 = CIRCLE ( 'NONE', #63, 0.01849999999999999908 ) ;
#46 = ORIENTED_EDGE ( 'NONE', *, *, #48, .F. ) ;
#47 = SURFACE_STYLE_USAGE ( .BOTH. , #56 ) ;
#48 = EDGE_CURVE ( 'NONE', #38, #38, #43, .T. ) ;
#49 = DIRECTION ( 'NONE',  ( 0.0000000000000000000, 0.0000000000000000000, 1.000000000000000000 ) ) ;
#50 =( GEOMETRIC_REPRESENTATION_CONTEXT ( 3 ) GLOBAL_UNCERTAINTY_ASSIGNED_CONTEXT ( ( #28 ) ) GLOBAL_UNIT_ASSIGNED_CONTEXT ( ( #124, #61, #26 ) ) REPRESENTATION_CONTEXT ( 'NONE', 'WORKASPACE' ) );
#51 = PLANE ( 'NONE',  #68 ) ;
#52 = DIRECTION ( 'NONE',  ( 1.000000000000000000, 0.0000000000000000000, 0.0000000000000000000 ) ) ;
#53 = CARTESIAN_POINT ( 'NONE',  ( 0.0000000000000000000, 0.0000000000000000000, 0.01849999999999999908 ) ) ;
#54 = UNCERTAINTY_MEASURE_WITH_UNIT (LENGTH_MEASURE( 1.000000000000000082E-05 ), #70, 'distance_accuracy_value', 'NONE');
#55 = EDGE_LOOP ( 'NONE', ( #134 ) ) ;
#56 = SURFACE_SIDE_STYLE ('',( #122 ) ) ;
#57 = EDGE_CURVE ( 'NONE', #114, #114, #45, .T. ) ;
#58 = EDGE_LOOP ( 'NONE', ( #67 ) ) ;
#59 = DIRECTION ( 'NONE',  ( 0.0000000000000000000, 0.0000000000000000000, 1.000000000000000000 ) ) ;
#60 = AXIS2_PLACEMENT_3D ( 'NONE', #111, #120, #49 ) ;
#61 =( NAMED_UNIT ( * ) PLANE_ANGLE_UNIT ( ) SI_UNIT ( $, .RADIAN. ) );
#62 = CYLINDRICAL_SURFACE ( 'NONE', #119, 0.01849999999999999908 ) ;
#63 = AXIS2_PLACEMENT_3D ( 'NONE', #104, #138, #39 ) ;
#64 = PRESENTATION_LAYER_ASSIGNMENT (  '', '', ( #24 ) ) ;
#65 = ORIENTED_EDGE ( 'NONE', *, *, #57, .T. ) ;
#66 = FILL_AREA_STYLE_COLOUR ( '', #16 ) ;
#67 = ORIENTED_EDGE ( 'NONE', *, *, #81, .F. ) ;
#68 = AXIS2_PLACEMENT_3D ( 'NONE', #6, #92, #83 ) ;
#69 = APPLICATION_PROTOCOL_DEFINITION ( 'draft international standard', 'automotive_design', 1998, #87 ) ;
#70 =( CONVERSION_BASED_UNIT ( 'INCH', #139 ) LENGTH_UNIT ( ) NAMED_UNIT ( #95 ) );
#71 = CARTESIAN_POINT ( 'NONE',  ( 0.2999999999999999334, 0.0000000000000000000, 0.0000000000000000000 ) ) ;
#72 = LENGTH_MEASURE_WITH_UNIT ( LENGTH_MEASURE( 0.02539999999999999897 ), #35 );
#73 = ADVANCED_FACE ( 'NONE', ( #102, #4 ), #51, .F. ) ;
#74 = DIRECTION ( 'NONE',  ( 0.0000000000000000000, 0.0000000000000000000, 1.000000000000000000 ) ) ;
#75 = PRODUCT_DEFINITION_CONTEXT ( 'detailed design', #34, 'design' ) ;
#76 = EDGE_LOOP ( 'NONE', ( #109 ) ) ;
#77 = EDGE_LOOP ( 'NONE', ( #17 ) ) ;
#78 =( NAMED_UNIT ( * ) SI_UNIT ( $, .STERADIAN. ) SOLID_ANGLE_UNIT ( ) );
#79 = EDGE_LOOP ( 'NONE', ( #65 ) ) ;
#80 = CYLINDRICAL_SURFACE ( 'NONE', #131, 0.01250000000000000069 ) ;
#81 = EDGE_CURVE ( 'NONE', #135, #135, #142, .T. ) ;
#82 = PLANE ( 'NONE',  #30 ) ;
#83 = DIRECTION ( 'NONE',  ( -0.0000000000000000000, 0.0000000000000000000, 1.000000000000000000 ) ) ;
#84 = CARTESIAN_POINT ( 'NONE',  ( 0.0000000000000000000, 0.0000000000000000000, 0.01250000000000000069 ) ) ;
#85 =( CONVERSION_BASED_UNIT ( 'INCH', #44 ) LENGTH_UNIT ( ) NAMED_UNIT ( #14 ) );
#86 = ADVANCED_FACE ( 'NONE', ( #136, #22 ), #80, .F. ) ;
#87 = APPLICATION_CONTEXT ( 'automotive_design' ) ;
#88 =( LENGTH_UNIT ( ) NAMED_UNIT ( * ) SI_UNIT ( $, .METRE. ) );
#89 = AXIS2_PLACEMENT_3D ( 'NONE', #71, #37, #25 ) ;
#90 = PRESENTATION_STYLE_ASSIGNMENT (( #47 ) ) ;
#91 = SURFACE_STYLE_USAGE ( .BOTH. , #21 ) ;
#92 = DIRECTION ( 'NONE',  ( -1.000000000000000000, 0.0000000000000000000, -0.0000000000000000000 ) ) ;
#93 = DIRECTION ( 'NONE',  ( 0.0000000000000000000, 0.0000000000000000000, -1.000000000000000000 ) ) ;
#94 = FILL_AREA_STYLE ('',( #11 ) ) ;
#95 = DIMENSIONAL_EXPONENTS ( 1.000000000000000000, 0.0000000000000000000, 0.0000000000000000000, 0.0000000000000000000, 0.0000000000000000000, 0.0000000000000000000, 0.0000000000000000000 ) ;
#96 = CIRCLE ( 'NONE', #60, 0.01849999999999999908 ) ;
#97 = AXIS2_PLACEMENT_3D ( 'NONE', #141, #12, #103 ) ;
#98 = EDGE_LOOP ( 'NONE', ( #46 ) ) ;
#99 = CARTESIAN_POINT ( 'NONE',  ( 0.0000000000000000000, 0.0000000000000000000, 0.0000000000000000000 ) ) ;
#100 = CARTESIAN_POINT ( 'NONE',  ( -1.224646799147352662E-19, 0.01849999999999999908, 0.0000000000000000000 ) ) ;
#101 = CLOSED_SHELL ( 'NONE', ( #121, #86, #73, #105 ) ) ;
#102 = FACE_OUTER_BOUND ( 'NONE', #77, .T. ) ;
#103 = DIRECTION ( 'NONE',  ( 0.0000000000000000000, 0.0000000000000000000, 1.000000000000000000 ) ) ;
#104 = CARTESIAN_POINT ( 'NONE',  ( 0.2999999999999999334, 0.0000000000000000000, 0.0000000000000000000 ) ) ;
#105 = ADVANCED_FACE ( 'NONE', ( #115, #13 ), #62, .T. ) ;
#106 = STYLED_ITEM ( 'NONE', ( #90 ), #33 ) ;
#107 = PRODUCT_DEFINITION_FORMATION_WITH_SPECIFIED_SOURCE ( 'ANY', '', #2, .NOT_KNOWN. ) ;
#108 = MECHANICAL_DESIGN_GEOMETRIC_PRESENTATION_REPRESENTATION (  '', ( #24 ), #118 ) ;
#109 = ORIENTED_EDGE ( 'NONE', *, *, #18, .T. ) ;
#110 = EDGE_LOOP ( 'NONE', ( #19 ) ) ;
#111 = CARTESIAN_POINT ( 'NONE',  ( 0.0000000000000000000, 0.0000000000000000000, 0.0000000000000000000 ) ) ;
#112 = PRODUCT_RELATED_PRODUCT_CATEGORY ( 'part', '', ( #2 ) ) ;
#113 = DIRECTION ( 'NONE',  ( -1.000000000000000000, -0.0000000000000000000, -0.0000000000000000000 ) ) ;
#114 = VERTEX_POINT ( 'NONE', #23 ) ;
#115 = FACE_OUTER_BOUND ( 'NONE', #9, .T. ) ;
#116 = DIMENSIONAL_EXPONENTS ( 1.000000000000000000, 0.0000000000000000000, 0.0000000000000000000, 0.0000000000000000000, 0.0000000000000000000, 0.0000000000000000000, 0.0000000000000000000 ) ;
#117 =( NAMED_UNIT ( * ) PLANE_ANGLE_UNIT ( ) SI_UNIT ( $, .RADIAN. ) );
#118 =( GEOMETRIC_REPRESENTATION_CONTEXT ( 3 ) GLOBAL_UNCERTAINTY_ASSIGNED_CONTEXT ( ( #54 ) ) GLOBAL_UNIT_ASSIGNED_CONTEXT ( ( #70, #117, #78 ) ) REPRESENTATION_CONTEXT ( 'NONE', 'WORKASPACE' ) );
#119 = AXIS2_PLACEMENT_3D ( 'NONE', #36, #113, #59 ) ;
#120 = DIRECTION ( 'NONE',  ( -1.000000000000000000, -0.0000000000000000000, -0.0000000000000000000 ) ) ;
#121 = ADVANCED_FACE ( 'NONE', ( #126, #5 ), #82, .F. ) ;
#122 = SURFACE_STYLE_FILL_AREA ( #10 ) ;
#123 = SURFACE_STYLE_FILL_AREA ( #94 ) ;
#124 =( CONVERSION_BASED_UNIT ( 'INCH', #72 ) LENGTH_UNIT ( ) NAMED_UNIT ( #116 ) );
#125 = CARTESIAN_POINT ( 'NONE',  ( -0.02134789528812627499, 0.0000000000000000000, 0.0000000000000000000 ) ) ;
#126 = FACE_BOUND ( 'NONE', #98, .T. ) ;
#127 = PRESENTATION_LAYER_ASSIGNMENT (  '', '', ( #106 ) ) ;
#128 = DIRECTION ( 'NONE',  ( -1.000000000000000000, -0.0000000000000000000, -0.0000000000000000000 ) ) ;
#129 = PRODUCT_DEFINITION_SHAPE ( 'NONE', 'NONE',  #27 ) ;
#130 = SHAPE_DEFINITION_REPRESENTATION ( #129, #32 ) ;
#131 = AXIS2_PLACEMENT_3D ( 'NONE', #125, #128, #74 ) ;
#132 = COLOUR_RGB ( '',0.2980392156862745057, 0.2980392156862745057, 0.2980392156862745057 ) ;
#133 =( NAMED_UNIT ( * ) SI_UNIT ( $, .STERADIAN. ) SOLID_ANGLE_UNIT ( ) );
#134 = ORIENTED_EDGE ( 'NONE', *, *, #48, .T. ) ;
#135 = VERTEX_POINT ( 'NONE', #3 ) ;
#136 = FACE_OUTER_BOUND ( 'NONE', #58, .T. ) ;
#137 = VERTEX_POINT ( 'NONE', #53 ) ;
#138 = DIRECTION ( 'NONE',  ( -1.000000000000000000, -0.0000000000000000000, -0.0000000000000000000 ) ) ;
#139 = LENGTH_MEASURE_WITH_UNIT ( LENGTH_MEASURE( 0.02539999999999999897 ), #40 );
#140 = UNCERTAINTY_MEASURE_WITH_UNIT (LENGTH_MEASURE( 1.000000000000000082E-05 ), #85, 'distance_accuracy_value', 'NONE');
#141 = CARTESIAN_POINT ( 'NONE',  ( 0.0000000000000000000, 0.0000000000000000000, 0.0000000000000000000 ) ) ;
#142 = CIRCLE ( 'NONE', #89, 0.01250000000000000069 ) ;
#143 = ORIENTED_EDGE ( 'NONE', *, *, #18, .F. ) ;
ENDSEC;
END-ISO-10303-21;
