ISO-10303-21;
HEADER;
FILE_DESCRIPTION (( 'STEP AP214' ),
    '1' );
FILE_NAME ('WG50.STEP',
    '2020-10-15T12:40:54',
    ( '' ),
    ( '' ),
    'SwSTEP 2.0',
    'SolidWorks 2019',
    '' );
FILE_SCHEMA (( 'AUTOMOTIVE_DESIGN' ));
ENDSEC;

DATA;
#1 = CARTESIAN_POINT ( 'NONE',  ( 0.2999999999999984346, 0.0000000000000000000, 0.0000000000000000000 ) ) ;
#2 =( GEOMETRIC_REPRESENTATION_CONTEXT ( 3 ) GLOBAL_UNCERTAINTY_ASSIGNED_CONTEXT ( ( #85 ) ) GLOBAL_UNIT_ASSIGNED_CONTEXT ( ( #49, #57, #142 ) ) REPRESENTATION_CONTEXT ( 'NONE', 'WORKASPACE' ) );
#3 = DIRECTION ( 'NONE',  ( -1.000000000000000000, -0.0000000000000000000, -0.0000000000000000000 ) ) ;
#4 = EDGE_CURVE ( 'NONE', #70, #70, #93, .T. ) ;
#5 = SURFACE_SIDE_STYLE ('',( #41 ) ) ;
#6 =( NAMED_UNIT ( * ) PLANE_ANGLE_UNIT ( ) SI_UNIT ( $, .RADIAN. ) );
#7 = AXIS2_PLACEMENT_3D ( 'NONE', #45, #137, #74 ) ;
#8 = DIRECTION ( 'NONE',  ( -1.000000000000000000, -0.0000000000000000000, -0.0000000000000000000 ) ) ;
#9 = PRODUCT ( 'WG50', 'WG50', '', ( #55 ) ) ;
#10 = ADVANCED_FACE ( 'NONE', ( #18, #31 ), #52, .F. ) ;
#11 = CARTESIAN_POINT ( 'NONE',  ( 0.0000000000000000000, 0.0000000000000000000, 0.01285000000000000205 ) ) ;
#12 = SURFACE_SIDE_STYLE ('',( #23 ) ) ;
#13 = VERTEX_POINT ( 'NONE', #99 ) ;
#14 = AXIS2_PLACEMENT_3D ( 'NONE', #54, #131, #19 ) ;
#15 = PRODUCT_DEFINITION_SHAPE ( 'NONE', 'NONE',  #40 ) ;
#16 = CYLINDRICAL_SURFACE ( 'NONE', #98, 0.02249999999999999917 ) ;
#17 = DIRECTION ( 'NONE',  ( -1.000000000000000000, -0.0000000000000000000, -0.0000000000000000000 ) ) ;
#18 = FACE_OUTER_BOUND ( 'NONE', #126, .T. ) ;
#19 = DIRECTION ( 'NONE',  ( -0.0000000000000000000, 0.0000000000000000000, 1.000000000000000000 ) ) ;
#20 = FACE_OUTER_BOUND ( 'NONE', #87, .T. ) ;
#21 = DIMENSIONAL_EXPONENTS ( 1.000000000000000000, 0.0000000000000000000, 0.0000000000000000000, 0.0000000000000000000, 0.0000000000000000000, 0.0000000000000000000, 0.0000000000000000000 ) ;
#22 = SURFACE_STYLE_USAGE ( .BOTH. , #12 ) ;
#23 = SURFACE_STYLE_FILL_AREA ( #134 ) ;
#24 = PRESENTATION_STYLE_ASSIGNMENT (( #22 ) ) ;
#25 = CARTESIAN_POINT ( 'NONE',  ( 0.2999999999999984346, 0.0000000000000000000, 0.01285000000000000205 ) ) ;
#26 = EDGE_LOOP ( 'NONE', ( #119 ) ) ;
#27 = COLOUR_RGB ( '',0.7921568627450980005, 0.8196078431372548767, 0.9333333333333333481 ) ;
#28 = CARTESIAN_POINT ( 'NONE',  ( 0.2999999999999984346, 0.0000000000000000000, 0.0000000000000000000 ) ) ;
#29 = LENGTH_MEASURE_WITH_UNIT ( LENGTH_MEASURE( 0.02539999999999999897 ), #102 );
#30 = DIRECTION ( 'NONE',  ( -1.000000000000000000, -0.0000000000000000000, -0.0000000000000000000 ) ) ;
#31 = FACE_BOUND ( 'NONE', #109, .T. ) ;
#32 = CIRCLE ( 'NONE', #43, 0.02249999999999999917 ) ;
#33 = DIMENSIONAL_EXPONENTS ( 1.000000000000000000, 0.0000000000000000000, 0.0000000000000000000, 0.0000000000000000000, 0.0000000000000000000, 0.0000000000000000000, 0.0000000000000000000 ) ;
#34 = CARTESIAN_POINT ( 'NONE',  ( 0.0000000000000000000, 0.0000000000000000000, 0.0000000000000000000 ) ) ;
#35 = AXIS2_PLACEMENT_3D ( 'NONE', #42, #136, #64 ) ;
#36 = CIRCLE ( 'NONE', #94, 0.01285000000000000205 ) ;
#37 = VERTEX_POINT ( 'NONE', #25 ) ;
#38 = FILL_AREA_STYLE_COLOUR ( '', #72 ) ;
#39 = AXIS2_PLACEMENT_3D ( 'NONE', #130, #17, #91 ) ;
#40 = PRODUCT_DEFINITION ( 'UNKNOWN', '', #48, #50 ) ;
#41 = SURFACE_STYLE_FILL_AREA ( #65 ) ;
#42 = CARTESIAN_POINT ( 'NONE',  ( -3.888253587292846297E-19, 0.02249999999999999917, 0.0000000000000000000 ) ) ;
#43 = AXIS2_PLACEMENT_3D ( 'NONE', #1, #125, #66 ) ;
#44 = ORIENTED_EDGE ( 'NONE', *, *, #4, .T. ) ;
#45 = CARTESIAN_POINT ( 'NONE',  ( 0.0000000000000000000, 0.0000000000000000000, 0.0000000000000000000 ) ) ;
#46 = PRESENTATION_LAYER_ASSIGNMENT (  '', '', ( #112 ) ) ;
#47 =( NAMED_UNIT ( * ) SI_UNIT ( $, .STERADIAN. ) SOLID_ANGLE_UNIT ( ) );
#48 = PRODUCT_DEFINITION_FORMATION_WITH_SPECIFIED_SOURCE ( 'ANY', '', #9, .NOT_KNOWN. ) ;
#49 =( CONVERSION_BASED_UNIT ( 'INCH', #67 ) LENGTH_UNIT ( ) NAMED_UNIT ( #21 ) );
#50 = PRODUCT_DEFINITION_CONTEXT ( 'detailed design', #118, 'design' ) ;
#51 = CYLINDRICAL_SURFACE ( 'NONE', #120, 0.01285000000000000205 ) ;
#52 = PLANE ( 'NONE',  #14 ) ;
#53 = DIRECTION ( 'NONE',  ( 0.0000000000000000000, 0.0000000000000000000, 1.000000000000000000 ) ) ;
#54 = CARTESIAN_POINT ( 'NONE',  ( 0.2999999999999984346, 0.02249999999999999917, 0.0000000000000000000 ) ) ;
#55 = PRODUCT_CONTEXT ( 'NONE', #80, 'mechanical' ) ;
#56 =( NAMED_UNIT ( * ) SI_UNIT ( $, .STERADIAN. ) SOLID_ANGLE_UNIT ( ) );
#57 =( NAMED_UNIT ( * ) PLANE_ANGLE_UNIT ( ) SI_UNIT ( $, .RADIAN. ) );
#58 = SHAPE_DEFINITION_REPRESENTATION ( #15, #73 ) ;
#59 =( NAMED_UNIT ( * ) PLANE_ANGLE_UNIT ( ) SI_UNIT ( $, .RADIAN. ) );
#60 = UNCERTAINTY_MEASURE_WITH_UNIT (LENGTH_MEASURE( 1.000000000000000082E-05 ), #117, 'distance_accuracy_value', 'NONE');
#61 = EDGE_CURVE ( 'NONE', #92, #92, #32, .T. ) ;
#62 = ORIENTED_EDGE ( 'NONE', *, *, #105, .F. ) ;
#63 = CARTESIAN_POINT ( 'NONE',  ( -0.02134789528812627499, 0.0000000000000000000, 0.0000000000000000000 ) ) ;
#64 = DIRECTION ( 'NONE',  ( 0.0000000000000000000, 0.0000000000000000000, -1.000000000000000000 ) ) ;
#65 = FILL_AREA_STYLE ('',( #77 ) ) ;
#66 = DIRECTION ( 'NONE',  ( 0.0000000000000000000, 0.0000000000000000000, 1.000000000000000000 ) ) ;
#67 = LENGTH_MEASURE_WITH_UNIT ( LENGTH_MEASURE( 0.02539999999999999897 ), #78 );
#68 = CARTESIAN_POINT ( 'NONE',  ( -0.02134789528812627499, 0.0000000000000000000, 0.0000000000000000000 ) ) ;
#69 = MECHANICAL_DESIGN_GEOMETRIC_PRESENTATION_REPRESENTATION (  '', ( #115 ), #106 ) ;
#70 = VERTEX_POINT ( 'NONE', #11 ) ;
#71 = LENGTH_MEASURE_WITH_UNIT ( LENGTH_MEASURE( 0.02539999999999999897 ), #107 );
#72 = COLOUR_RGB ( '',0.7921568627450980005, 0.8196078431372548767, 0.9333333333333333481 ) ;
#73 = ADVANCED_BREP_SHAPE_REPRESENTATION ( 'WG50', ( #133, #111 ), #2 ) ;
#74 = DIRECTION ( 'NONE',  ( 0.0000000000000000000, 0.0000000000000000000, 1.000000000000000000 ) ) ;
#75 = PRESENTATION_STYLE_ASSIGNMENT (( #89 ) ) ;
#76 =( GEOMETRIC_REPRESENTATION_CONTEXT ( 3 ) GLOBAL_UNCERTAINTY_ASSIGNED_CONTEXT ( ( #60 ) ) GLOBAL_UNIT_ASSIGNED_CONTEXT ( ( #117, #59, #47 ) ) REPRESENTATION_CONTEXT ( 'NONE', 'WORKASPACE' ) );
#77 = FILL_AREA_STYLE_COLOUR ( '', #27 ) ;
#78 =( LENGTH_UNIT ( ) NAMED_UNIT ( * ) SI_UNIT ( $, .METRE. ) );
#79 = ORIENTED_EDGE ( 'NONE', *, *, #128, .T. ) ;
#80 = APPLICATION_CONTEXT ( 'automotive_design' ) ;
#81 = ADVANCED_FACE ( 'NONE', ( #139, #103 ), #16, .T. ) ;
#82 = APPLICATION_PROTOCOL_DEFINITION ( 'draft international standard', 'automotive_design', 1998, #118 ) ;
#83 = DIMENSIONAL_EXPONENTS ( 1.000000000000000000, 0.0000000000000000000, 0.0000000000000000000, 0.0000000000000000000, 0.0000000000000000000, 0.0000000000000000000, 0.0000000000000000000 ) ;
#84 = APPLICATION_PROTOCOL_DEFINITION ( 'draft international standard', 'automotive_design', 1998, #80 ) ;
#85 = UNCERTAINTY_MEASURE_WITH_UNIT (LENGTH_MEASURE( 1.000000000000000082E-05 ), #49, 'distance_accuracy_value', 'NONE');
#86 = MECHANICAL_DESIGN_GEOMETRIC_PRESENTATION_REPRESENTATION (  '', ( #112 ), #76 ) ;
#87 = EDGE_LOOP ( 'NONE', ( #62 ) ) ;
#88 = EDGE_LOOP ( 'NONE', ( #123 ) ) ;
#89 = SURFACE_STYLE_USAGE ( .BOTH. , #5 ) ;
#90 =( CONVERSION_BASED_UNIT ( 'INCH', #29 ) LENGTH_UNIT ( ) NAMED_UNIT ( #83 ) );
#91 = DIRECTION ( 'NONE',  ( 0.0000000000000000000, 0.0000000000000000000, 1.000000000000000000 ) ) ;
#92 = VERTEX_POINT ( 'NONE', #96 ) ;
#93 = CIRCLE ( 'NONE', #39, 0.01285000000000000205 ) ;
#94 = AXIS2_PLACEMENT_3D ( 'NONE', #28, #8, #104 ) ;
#95 = DIRECTION ( 'NONE',  ( 1.000000000000000000, 0.0000000000000000000, 0.0000000000000000000 ) ) ;
#96 = CARTESIAN_POINT ( 'NONE',  ( 0.2999999999999984346, 0.0000000000000000000, 0.02249999999999999917 ) ) ;
#97 = DIRECTION ( 'NONE',  ( 0.0000000000000000000, 0.0000000000000000000, 1.000000000000000000 ) ) ;
#98 = AXIS2_PLACEMENT_3D ( 'NONE', #63, #30, #53 ) ;
#99 = CARTESIAN_POINT ( 'NONE',  ( 0.0000000000000000000, 0.0000000000000000000, 0.02249999999999999917 ) ) ;
#100 = ADVANCED_FACE ( 'NONE', ( #20, #129 ), #51, .F. ) ;
#101 = EDGE_LOOP ( 'NONE', ( #135 ) ) ;
#102 =( LENGTH_UNIT ( ) NAMED_UNIT ( * ) SI_UNIT ( $, .METRE. ) );
#103 = FACE_OUTER_BOUND ( 'NONE', #26, .T. ) ;
#104 = DIRECTION ( 'NONE',  ( 0.0000000000000000000, 0.0000000000000000000, 1.000000000000000000 ) ) ;
#105 = EDGE_CURVE ( 'NONE', #37, #37, #36, .T. ) ;
#106 =( GEOMETRIC_REPRESENTATION_CONTEXT ( 3 ) GLOBAL_UNCERTAINTY_ASSIGNED_CONTEXT ( ( #143 ) ) GLOBAL_UNIT_ASSIGNED_CONTEXT ( ( #90, #6, #56 ) ) REPRESENTATION_CONTEXT ( 'NONE', 'WORKASPACE' ) );
#107 =( LENGTH_UNIT ( ) NAMED_UNIT ( * ) SI_UNIT ( $, .METRE. ) );
#108 = CLOSED_SHELL ( 'NONE', ( #122, #100, #10, #81 ) ) ;
#109 = EDGE_LOOP ( 'NONE', ( #110 ) ) ;
#110 = ORIENTED_EDGE ( 'NONE', *, *, #105, .T. ) ;
#111 = AXIS2_PLACEMENT_3D ( 'NONE', #34, #97, #95 ) ;
#112 = STYLED_ITEM ( 'NONE', ( #24 ), #73 ) ;
#113 = EDGE_LOOP ( 'NONE', ( #44 ) ) ;
#114 = ORIENTED_EDGE ( 'NONE', *, *, #61, .F. ) ;
#115 = STYLED_ITEM ( 'NONE', ( #75 ), #133 ) ;
#116 = DIRECTION ( 'NONE',  ( 0.0000000000000000000, 0.0000000000000000000, 1.000000000000000000 ) ) ;
#117 =( CONVERSION_BASED_UNIT ( 'INCH', #71 ) LENGTH_UNIT ( ) NAMED_UNIT ( #33 ) );
#118 = APPLICATION_CONTEXT ( 'automotive_design' ) ;
#119 = ORIENTED_EDGE ( 'NONE', *, *, #61, .T. ) ;
#120 = AXIS2_PLACEMENT_3D ( 'NONE', #68, #3, #116 ) ;
#121 = FACE_BOUND ( 'NONE', #88, .T. ) ;
#122 = ADVANCED_FACE ( 'NONE', ( #121, #138 ), #140, .F. ) ;
#123 = ORIENTED_EDGE ( 'NONE', *, *, #4, .F. ) ;
#124 = EDGE_LOOP ( 'NONE', ( #79 ) ) ;
#125 = DIRECTION ( 'NONE',  ( -1.000000000000000000, -0.0000000000000000000, -0.0000000000000000000 ) ) ;
#126 = EDGE_LOOP ( 'NONE', ( #114 ) ) ;
#127 = PRESENTATION_LAYER_ASSIGNMENT (  '', '', ( #115 ) ) ;
#128 = EDGE_CURVE ( 'NONE', #13, #13, #132, .T. ) ;
#129 = FACE_OUTER_BOUND ( 'NONE', #113, .T. ) ;
#130 = CARTESIAN_POINT ( 'NONE',  ( 0.0000000000000000000, 0.0000000000000000000, 0.0000000000000000000 ) ) ;
#131 = DIRECTION ( 'NONE',  ( -1.000000000000000000, 0.0000000000000000000, -0.0000000000000000000 ) ) ;
#132 = CIRCLE ( 'NONE', #7, 0.02249999999999999917 ) ;
#133 = MANIFOLD_SOLID_BREP ( 'Revolve1', #108 ) ;
#134 = FILL_AREA_STYLE ('',( #38 ) ) ;
#135 = ORIENTED_EDGE ( 'NONE', *, *, #128, .F. ) ;
#136 = DIRECTION ( 'NONE',  ( 1.000000000000000000, 0.0000000000000000000, 0.0000000000000000000 ) ) ;
#137 = DIRECTION ( 'NONE',  ( -1.000000000000000000, -0.0000000000000000000, -0.0000000000000000000 ) ) ;
#138 = FACE_OUTER_BOUND ( 'NONE', #124, .T. ) ;
#139 = FACE_OUTER_BOUND ( 'NONE', #101, .T. ) ;
#140 = PLANE ( 'NONE',  #35 ) ;
#141 = PRODUCT_RELATED_PRODUCT_CATEGORY ( 'part', '', ( #9 ) ) ;
#142 =( NAMED_UNIT ( * ) SI_UNIT ( $, .STERADIAN. ) SOLID_ANGLE_UNIT ( ) );
#143 = UNCERTAINTY_MEASURE_WITH_UNIT (LENGTH_MEASURE( 1.000000000000000082E-05 ), #90, 'distance_accuracy_value', 'NONE');
ENDSEC;
END-ISO-10303-21;
